Accordium Delectus Подборка аккордов
 

Главная > П > Пресняков Владимир > Странник

Владимир Пресняков - Странник Текст песни с аккордами


Оригинальная тональность - Cm


Вступление:


                Dm        Dsus2            Gm               A            A7                D/E        D/F                             

E|--1------0----------3------3------------0------0-------------------1------|

H|----3------3---3------3------3------------2------2--------3------3---3----|

G|------2------2----5------3--------3---2------0----------2------2----------|

D|--0--------------------------------------------------3-2-----3------------|

A|--------------------------------------0-----------------------------------|

E|------------------3---------------3---------------------------------------|

       Dm        Dsus2            Gm                     A            A7                D/E        D                  

E|--1------0----------3------3------------0------0-------------------1------|

H|----3------3---3------3------3------------2------2--------3------3---3----|

G|------2------2----5------3--------3---2------0----------2------2----------|

D|--0--------------------------------------------------3-2-----0------------|

A|--------------------------------------0-----------------------------------|

E|------------------3---------------3---------------------------------------|

       Gm/B          Gm         B      Gm7          Dm                      

E|---3--------3-----1------3-------1-----------|

H|---3--------3-----3------3-------3-----------|

G|---3--------3-----3------3-------2-----------|

D|---5--------5-----3------3-------0-----------|

A|---5--------5-----1------5-------------------|

E|---6--------3-----1------3-------------------|





Gm            Dm          
Я не ангел, я не бес,
A     A7        Dm      
Я усталый странник,
Gm            Dm            
Я вернулся, я воскрес -
        F            B      C  
И в дом твой постучал

Gm            Dm         
Ты открыла очи мне,
  A        A7      Dm     
Сонным утром ранним
Gm             Dm        
Прислонился я к стене
     B     A7     Dm 
И шёпотом сказал:

Припев:

      Dm        Dsus2            Gm                    A            A7           D/E        D/F              

E|--1------0----------3------3------------0------0-------------------1------|

H|----3------3---3------3------3------------2------2--------3------3---3----|

G|------2------2----5------3--------3---2------0----------2------2----------|

D|--0--------------------------------------------------3-2-----3------------|

A|--------------------------------------0-----------------------------------|

E|------------------3---------------3---------------------------------------|

    "Дай       мне  с до - ро  - ги                     вдо  - воль         на-пить  -  ся,              


      Dm        Dsus2            Gm                 A            A7                D                     

E|--1------0----------3------3------------0------0-----1--------------------|

H|----3------3---3------3------3------------2------2------------------------|

G|------2------2----5------3--------3---2------0------------------2-3-------|

D|--0--------------------------------------------------0----0-2-3-----------|

A|--------------------------------------0-----------------------------------|

E|------------------3---------------3---------------------------------------|

      Чис       -   той        води     -    цы                      дай      мне,             дай                      


       Dm        Dsus2            Gm                         A            A7                D/E        D/F              

E|--1------0----------3------3------------0------0-------------------1------|

H|----3------3---3------3------3------------2------2--------3------3---3----|

G|------2------2----5------3--------3---2------0----------2------2----------|

D|--0--------------------------------------------------3-2-----3------------|

A|--------------------------------------0-----------------------------------|

E|------------------3---------------3---------------------------------------|

      Ты          рас    -   скажи           мне           про   счас    -    тье           было    -    е,


      Dm        Dsus2            Gm                      A            A7                D/E        D              

E|--1------0----------3------3------------0------0-------------------1------|

H|----3------3---3------3------3------------2------2--------3------3---3----|

G|------2------2----5------3--------3---2------0----------2------2----------|

D|--0--------------------------------------------------3-2-----0------------|

A|--------------------------------------0-----------------------------------|

E|------------------3---------------3---------------------------------------|

        И             у-ло-жи        спать,                  ря-дом        с собо    -     ю"                    


       Gm/B          Gm          B          Gm7          Dm             

E|---3--------3-----1------3-------1-----------|

H|---3--------3-----3------3-------3-----------|

G|---3--------3-----3------3-------2-----------|

D|---5--------5-----3------3-------0-----------|

A|---5--------5-----1------5-------------------|

E|---6--------3-----1------3-------------------|




Годы странствий и разлук
Нас с тобой венчали
Я к тебе, сквозь тысячу вьюг,
Пришел в конце пути

Сколько ты пережила
Горя и печали
Не таи на сердце зла,
И путника прости

Припев.

Проигрыш: Gm A7 Dm   D Gm E Dm A7 Dm

Припев.

Окончание:

                    Dm        Dsus2            Gm                                 A            A7                D/E        D/F              

E|--1------0----------3------3------------0------0-------------------1------|

H|----3------3---3------3------3------------2------2--------3------3---3----|

G|------2------2----5------3--------3---2------0----------2------2----------|

D|--0--------------------------------------------------3-2-----3------------|

A|--------------------------------------0-----------------------------------|

E|------------------3---------------3---------------------------------------|

                 Dm        Dsus2            Gm                                 A            A7                D/E        D              

E|--1------0----------3------3------------0------0-------------------1------|

H|----3------3---3------3------3------------2------2--------3------3--------|

G|------2------2----5------3--------3---2------0----------2------2----------|

D|--0--------------------------------------------------3-2-----0------------|

A|--------------------------------------0-----------------------------------|

E|------------------3---------------3---------------------------------------|

 
Последние комментарии

"здорово!звучит правдо-подобно"
 

"очаровательная трогательная песня"
 

"А кто автор стихов, кто автор музыки???"
 

"Спасибо! Побольше бы таких мудрых, трогательных и красивых песен!"
 

"прекрасная песня и просто Прекрасный подбор, Спасибо!"
Статистика

Онлайн всего: 26
Гостей: 26
Пользователей: 0
Вход на сайт