Accordium Delectus Подборка аккордов
 
Главная > В > Волонтёры > Гимн Волонтёров

Волонтёры: Гимн Волонтёров


Вступление:


        G     C              C/H Am                 Dm                      G           

E|-------------------------------------------------------------------------------|

H|---------6-5---5-----5-5-5----------------------8------------------------------|

G|---5--7------7-------------7-7-5-----------7--9---10-9-10----10-10-10-9-9-7----|

D|-5---------------------------------------7-------------------------------------|

A|-------------------------------------------------------------------------------|

E|-------------------------------------------------------------------------------|

       G     C              C/H Am                 Dm           G            C         

E|-------------------------------------------------------------------------------|

H|---------6-5---5-----5-5-5----------------------8-------------------5----------|

G|---5--7------7-------------7-7-5-----------7--9---10-9-10---------------7-7--5-|

D|-5---------------------------------------7----------------------5-5------------|

A|-------------------------------------------------------------------------------|

E|-------------------------------------------------------------------------------|



              C                  
В нашем мире огромном,
                                    G      
В суете бесконечных дней,
        Dm                  
Мы хотим, чтобы люди
       F                         G  
Научились слышать людей

         C                    
Собираясь в дорогу,
                                     G   
Не спеша огянулись вокруг
       Dm                
Понимая, как много
                F         G         C    
Добрых глаз и надёжных рук

Припев:

                  C                    
Пусть сотни искренних глаз
      C/H   Am     
Помогают верить
                  Dm               
Пусть сотни наших сердец
                            G      
В трудный час согреют

                   C              
Пусть наши руки в пути
         C/H   Am    
Будут вам опорой
                    Dm              
Ты хочешь с нами идти -
G                        C       
Становись волонтёром


Нашим сердцем горячим
Научились мы мир любить
И наверно иначе
Волонтёры не могут жить

Окружая заботой,
Помогая найти друзей,
Мы хотим, чтоб надежда
Оставалась в душе людей

Припев.

Места нет для амбиций,
Если помощь пришла в добрый час
Пусть счастливые лица
Будут главной наградой для нас

Ведь ничем не измерить
Сострадание, ответственность, честь
Мы даём повод верить,
Что добро на земле нашей есть

Припев.

                     Dm               
Ты хочешь с нами идти -
G                        C       
Становись волонтёром


Проигрыш:


        G     C              C/H Am                 Dm                      G           

E|-------------------------------------------------------------------------------|

H|---------6-5---5-----5-5-5----------------------8------------------------------|

G|---5--7------7-------------7-7-5-----------7--9---10-9-10----10-10-10-9-9-7----|

D|-5---------------------------------------7-------------------------------------|

A|-------------------------------------------------------------------------------|

E|-------------------------------------------------------------------------------|

       G     C              C/H Am                 Dm           G            C         

E|-------------------------------------------------------------------------------|

H|---------6-5---5-----5-5-5----------------------8-------------------5----------|

G|---5--7------7-------------7-7-5-----------7--9---10-9-10---------------7-7--5-|

D|-5---------------------------------------7----------------------5-5------------|

A|-------------------------------------------------------------------------------|

E|-------------------------------------------------------------------------------|



                     Dm                
Ты хочешь с нами идти -
G                        C         
Становись волонтёром! 


 
Ещё песни:
 

 
 
Последние комментарии

"Один в один"
 

"отлично"
 

"Песня группы "Зоопарк", автор песни M. Науменко"
 

"Спасибо! Вы лучшие!"
 

"Замечательная, близкая сердцу, большое спасибо автору ."
Статистика

Онлайн всего: 82
Гостей: 82
Пользователей: 0
Вход на сайт