Accordium Delectus Подборка аккордов
 
"

Главная > В > Воскресение > Музыкант


E|--------|

H|--------|

G|-----2--|

D|-3-2----|

A|-----0--|

E|--------|


  Am               Am/G               F               Am7                        

 E|----------0-------------------0-------------------1-------------------3-------------------3-------|

 H|------1-------1-----------1-------1-----------1-------1-----------1-------1-----------1-------1---|

 G|----2---2---2---2-------2---2---2---2-------2---2---2---2-------2---2---2---2-------2---2---2---2-|

 D|--------------------------------------------------------------------------------------------------|

 A|-0-----------------------------------------------------------0-------------------0----------------|

 E|---------------------3-------------------1--------------------------------------------------------|

По-ве-сил свой  сюр-тук на спинку    сту-ла       музы-кант         

    Am7             Am/G                F                 C                         

   E|----------3-------------------0-------------------1-------------------0-------------------3-0-----|

   H|------1-------1-----------1-------1-----------1-------1-----------1-------1-----------1-------3-1-|

   G|----2---2---2---2-------2---2---2---2-------2---2---2---2-------0---0---0---0-------0---0---------|

   D|--------------------------------------------------------------------------------------------------|

   A|-0-----------------------------------------------------------3-------------------3----------------|

   E|---------------------3-------------------1--------------------------------------------------------|

Рас-пра-вил     нервно-ю рукой       на ше-е    чёрный   ба-нт 

  C               C/H              Bdim7                          

E|----------0-------------------0-------------------0-------------------0--------|

H|------1-------1-----------1-------1-----------2-------2-----------2-------2----|

G|----0---0---0---0-------0---0---0---1-------0---0---0---0-------0---0---0---0--|

D|-------------------------------------------------------------------------------|

A|-0-------------------2-------------------1-------------------1-----------------|

E|-------------------------------------------------------------------------------|

     Подойди           скорей поближе,  чтобы лучше  слы-шать 

  A7                                 Dm          

E|----------0-------------------0-------------------1-------|

H|------2-------2-----------2-------2-----------3-------3---|

G|----0---0---0---0-------0---0---0---0-------2---2---2---2-|

D|-----------------------------------------0----------------|

A|-0-------------------0------------------------------------|

E|----------------------------------------------------------|


     Если  ты    ещ-ё не слишком    пьян             


E|-1----0-------------|

H|-----------3----1---|

G|---0----0----0----0-|

D|-3----2----0--------|

A|----------------3---|

E|--------------------|

 
 E/H                E               Am       Am/G       Am/F#        

E|----------0-------------------0-------------------------------------------0-------|

H|------0-------0-----------0-------0-----------1-----------1-----------1-------1---|

G|----1---1---1---1-------1---1---1---1-------2---2-------2---2-------2---2---2---2-|

D|----------------------------------------------------------------------------------|

A|-2---------------------------------------0----------------------------------------|

E|---------------------0-------------------------------3-----------2----------------|

     О несчастных      и счастливых,    о  доб-ре   и    зле             

        F                 H7                E                           

       E|----------1--------------------2-------------------0-------------------0-------|

       H|------1-------1------------0-------0-----------0-------0-----------0-------0---|

       G|----2---2---2---2--------2---2---2---2-------1---1---1---1-------1---1---1---1-|

       D|-------------------------------------------------------------------------------|

       A|----------------------2--------------------------------------------------------|

       E|-1----------------------------------------0-------------------0----------------|

О лютой не-нависти             и святой люб-ви                               



  Dm               E                 Am       Am/G      Am/F#         

E|----------1-------------------0-------------------------------------------0-------|

H|------3-------3-----------0-------0-----------1-----------1-----------1-------1---|

G|----2---2---2---2-------1---1---1---1-------2---2-------2---2-------2---2---2---2-|

D|-0--------------------------------------------------------------------------------|

A|-----------------------------------------0----------------------------------------|

E|---------------------0-------------------------------3-----------2----------------|

     Что творится,    что творилось     на  тво-ей    земл-е                

           F                 H7               E                      

          E|----------1-------------------2-------------------0-------------------0-|

          H|------1-------1-----------0-------0-----------0-------0-----------0-----|

          G|----2---2---2---2-------2---2---2---2-------1---1---1---1-------1---1---|

          D|------------------------------------------------------------------------|

          A|---------------------2--------------------------------------------------|

          E|-1---------------------------------------0-------------------0----------|


Всё в этой му-зыке,     ты толь-ко       улов-и   

 
Поделись с друзьями:
 
 
Последние комментарии

"Жизнь прожить,не поле перейти..."
 

"Великолепно!"
 

"Спасибо!.."
 

"Слова не те"
 

"уаропоряяяяяяяяяяя"
Настройка гитары
1-ая струна E (ми)  

2-ая струна H (си)  

3-я струна G (соль) 

4-ая струна D (ре) 

5-ая струна A (ля) 

6-ая струна E (ми) 
Статистика

Онлайн всего: 67
Гостей: 67
Пользователей: 0
Вход на сайт