Accordium Delectus Подборка аккордов
 
Главная > З > Земфира > До свидания

Земфира: До свидания



Hm                  E                  Am          
Луна убывает, такое бывает,
D7                   
Я иду стричься
Dm                G                         C          
Меня убивают и замки стреляют
F            
В левую мышцу

И не попадают, что тоже бывает,
Сбиты прицелы,
И я улыбаюсь, живу и не старюсь
      F                        Hm   E  
Четырнадцать целых ле-е-ет

Припев:

               Am   F        G            C   
До свидания, мой любимый город,
  Dm       E    Am       Gm    C       F  E
Я почти попала в хроники твои
           Am    F          G             C   
Ожидание - самый скучный повод,
   Dm         E         Am    Gm      C       F   E
Нам с тобой так мало  надо для двоих


Потухли все звёзды совсем от мороза,
Все потемнели
Пожухли те розы, вызвали слёзы
И надоели

Ненужная проза из-за мороза
Будет ли белой?
А я улыбаюсь, живу и стараюсь,
И волосы целые

Припев.

Проигрыш:

E|-------------------------------------------------------|
H|-------------------------------------------------------|
G|-------------------------------------------------------|
D|-------------------------------------------------------|
A|-0--3-0-5--3-0-5-3-0-----------0--3-0-5-3-0-5--7-------|
E|---------------------0---0-3-4-------------------------|

E|-------------------------------------------------------|
H|-------------------------------------------------------|
G|-------------------------------------------------------|
D|-------------------------------------------------------|
A|-------0--3-0-5--3-0-5-3-0-----------0--3-0-5-3-0-5--7-|
E|-0-3-4---------------------0---0-3-4-------------------|

|G  F#|F  E|

                Am    F    G     C      Dm    E    Am      Gm    C     F  E  
E|-----7--5----------------------------------------------------------|
H|-5-5---------8--6-5-----6--5----5----------------------------------|
G|---------------------7-------------7-5--4--7--5----3-5--7--5-------|
D|--------------------------------------------------------------7--6-|
A|-------------------------------------------------------------------|
E|-------------------------------------------------------------------|

                Am    F    G      C   Dm    E    Am   Gm    C     F   E      
E|-----7--8----8--7-10--7--8----8--7---------------------------------|
H|-5-5-------------------------------9--6--5----5-3--6--5------------|
G|---------------------------------------------------------5---4-----|
D|-------------------------------------------------------------------|
A|-------------------------------------------------------------------|
E|-------------------------------------------------------------------|

Припев:

До свидания, мой любимый город,
Я почти попала в хроники твои
Ожидание - самый скучный повод...
Как же я устала думать за двоих!

До свидания, мой любимый город,
Я почти попала в хроники твои

              Am
До свидания!

Бой на гитаре (примерный вариант):

 
Последние комментарии

""Ласковый май" вернулся"
 

"Безумно красивая композиция"
 

"Текст не соответствует заявленному! Примите меры."
 

"Сравните с исполнением Владимир Трошина"
 

"Класс. Настоящая песня со смыслом. А то превратили женщин элегантно года возраста а старух. А мы живые и очень даже."
Вход на сайт