Accordium Delectus Подборка аккордов
 
Главная > З > Земляне > Взлётная полоса

Земляне: Взлётная полоса



Вступление:

  Am             G          Am             G        
E|-------------------------------------------------|
H|-------------------------------------------------|
G|-------------5-4-----------------------5-4-------|
D|-7--5-7-5-7-------5---5----7--5-7-5-7-------5--5-|
A|--------------------7----------------------------|
         E|-------------------------------------------------| - 2 раза

   Am                    G                 Am
Взлётная полоса - это начало дня,
     C                  G   Dm               E7+9
Звёздные голоса в небо зовут меня,
Dm                             F                               
Ветер шумит в ушах, солнце слепит глаза...
Dm                    D#dim7   E              Am
Вот она, в двух шагах, взлётная полоса!

Припев:

Dm                         
Сделай вперед рывок
Am                               
И за друзей держись,
   Dm               G  
Взлётною полосой
C                             
Перед тобой вся жизнь

Dm                        
Сделай вперед рывок
Am                               
И за друзей держись,
Dm                 
Взлётною полосой,
F               
Взлётною полосой
E                              
Перед тобой вся жизнь!


Ты береги леса, ты береги поля,
Будет опорой нам наша с тобой Земля
Ветер шумит в ушах, солнце слепит глаза,
Вот она, в двух шагах, взлётная полоса!

Припев.

Проигрыш:

|Am  Am|G  Am|C  G|Dm  E7+9|

|Dm  Dm|F  F|Dm  D#dim7|E  Am|

Припев.

Окончание:

  Am             G          Am             G                          Am  
E|-------------------------------------------------|          E|---------|
H|-------------------------------------------------|          H|---------|
G|-------------5-4-----------------------5-4-------|          G|---------|
D|-7--5-7-5-7-------5---5----7--5-7-5-7-------5--5-|          D|-5---5-7-|
A|--------------------7----------------------------|          A|---7-----|
E|-------------------------------------------------| - 2 раза E|---------|

Бой на гитаре (примерный вариант):


 
Последние комментарии

"Здорово конечно! Спасибо! А можно в Am перевести?"
 

"Благодарю за правильные аккорды! Низкий поклон автору песни."
 

"Красивая, но забытая песня."
 

"хороший подбор"
 

"Молодец! Не надо забывать чувство любви, оно движет Миром!!!!"
Статистика

Онлайн всего: 21
Гостей: 21
Пользователей: 0
Вход на сайт