Accordium Delectus Подборка аккордов
 

Женя Отрадная: Паромщик


Вступление (примерный вариант):


E|---------5--------5--------5-------------------7-----7------------7-----7-|

H|-----0--------0--------0--------0----------0-------0----------6-------6---|

G|---5---5----5---5----5---5----5---5------7---7---7----------7---7---7-----|

D|----------------------------------------------------------6---------------|

A|-0-------------------------------------0----------------------------------|

         E|--------------------------------------------------------------------------| - 2 раза


Hm7-5           E  Hm7-5             E      
Перекинул мост      между нами ты,
Gm             A7 Gm   A7    Dm  
Только до утра развели мосты
Dm/C              E Am             F          
Я сниму кольцо   и зажму в ладонь...
B                      Hm      E   
Отвези меня, паромщик, я скучаю

Припев:

        Dm     E           Am    Dsus2/F
Без него на небе гаснут звё-ё-ё-зды,
          Dm     E        Gm  A7 
Без него приходят холода,
      Dm         E            Am      Fmaj7 
Без него мне в счастье верить по-о-о-здно...

Dm        E         Gm          A7         
Отвези меня паромщик, отвези меня паромщик
Dm             E           F 
На тот берег, раз и навсегда,
        Dm      E          Am 
   На тот берег, раз и навсегда...

Проигрыш=Вступление


Тёмная вода, холодно плечам...
В эту пустоту хочется кричать!
Ты меня дождись, там, на берегу,
  B                      Hm  Ddim7/E  E 
Отвезёт меня, паромщик, я успею...

Припев - 2 раза.

Окончание:

E|---------5--------5--------5-------------------7-----7------------7-----7-|

H|-----0--------0--------0--------0----------0-------0----------6-------6---|

G|---5---5----5---5----5---5----5---5------7---7---7----------7---7---7-----|

D|----------------------------------------------------------6---------------|

A|-0-------------------------------------0----------------------------------|

E|--------------------------------------------------------------------------|


E|---------5--------5--------5-------------------7-----7------------7-----7-------7-|

H|-----0--------0--------0--------0----------0-------0----------6-------6--------0--|

G|---5---5----5---5----5---5----5---5------7---7---7----------7---7---7---------5---|

D|----------------------------------------------------------6-----------------------|

A|-0-------------------------------------0-------------------------------------0----|

E|----------------------------------------------------------------------------------|

 
Последние комментарии

"Супер, вспомнил забытую вещь"
 

"ШИКАРНАЯ ПЕСНЯ!!!!"
 

"Шикарный голос! Слова песни, музыка завораживают! До слез."
 

"Ещё б ноты к этой песне."
 

"Класс!!!!!!"
Вход на сайт