Accordium Delectus Подборка аккордов
 
Главная > Ж > Журга > С Днём рождения, мама

Журга (Галина Журавлёва): С Днём рождения, мама


Смотреть в тональности Am


Вступление (примерный вариант боя на гитаре):


 Hm(7) Hm+7  Hm7  Hm/G#  Hm               Em                  

E|---7-7---7-7---7-7---7-7---2-2---2-2---0-0---0-0-|

H|---7-7---7-7---7-7---7-7---3-3---3-3---0-0---0-0-|

G|---7-7---7-7---7-7---7-7---4-4---4-4---0-0---0-0-|

D|-9-----8-----7-----6-----------------------------|

A|-------------------------2-----------------2-----|

E|-------------------------------2-----0-----------|


   Em               Hm                F#                                     

E|---0-0---0-0---2-2---2-2---2-2---2-2---2-2-------|

H|---0-0---0-0---3-3---3-3---2-2---2-2---2-2-------|

G|---0-0---0-0---4-4---4-4---3-3---3-3---3-3-------|

D|-------------------------------------------------|

A|-------2-----2-----------------4-----------4-----|

E|-0-----------------2-----2-----------2-----------|


       Hm              F#       Hm      
За окном дождик тихо заплакал,
      F#                     Hm 
А у нас красота за столом
              G                    Em    
День рождения сегодня у мамы,
         F#                        Hm
И родных, и друзей полон дом

      Am          H7       Em         
И бокалы на скатерти тонкой -
             Am      H7          Em  
Нет счастливее маминых глаз!
            Em/C#       F#          Hm         G
Кто-то крикнул родителям: "Горько!",
        Em              F#         Hm   
А раз так, значит жизнь удалась!

Припев:

    Hm                 Em    
С Днём рождения, мама,
F#                Hm    
Обними меня
 G                Em  
Держит и спасает
 F#                      Hm  F#
Нас любовь твоя

    Hm                  Em     
С Днём рождения, мама,
        A                    Am  H7
Пусть берегут тебя
Em        Em/C# Hm          
И земля, и  небо,
F#                 Hm    
И любовь моя
И земля, и небо,
И любовь моя


Всё напутал рассеянный дождик,
Может, вышел гостей проводить
Мы за маму нальём на дорожку,
Всем в здоровье и в радости жить

На ковре засыпают игрушки,
И внучата давно видят сны
Кукла Маша лежит на подушке...
Мама, мамочка, сядь, отдохни!

Припев.

Проигрыш=Вступление

Видно, вдоволь наплакались свечи,
Заглянув в наш семейный альбом
Оживают разлуки и встречи,
Мама мамочка, слёзы - потом

Пожелтели от времени фото...
Ах, какая же жизнь пронеслась!
Свадьба, дети, друзья и работа -
Это счастье уже не украсть

Припев.

Em                 Hm         
И земля, и небо,
F#                  Hm     
И любовь моя

Окончание:

Hm(7) Hm+7   Hm7  Hm/G#  Hm      F#     Hm       Hm(7)

E|---7-7---7-7---7-7---7-7---2-2---2-2---2-2---7-|

H|---7-7---7-7---7-7---7-7---3-3---2-2---3-3---7-|

G|---7-7---7-7---7-7---7-7---4-4---3-3---4-4---7-|

D|-9-----8-----7-----6-------------------------9-|

A|-------------------------2-----------2-------9-|

E|-------------------------------2-------------7-|

 


 
Последние комментарии

"Душевно..!"
 

"Жаль нет минусовки ."
 

"Хорошая песня ! Правдивая"
 

"Сейчас таких песен нет."
 

"Замечательная песня"
Статистика

Онлайн всего: 55
Гостей: 55
Пользователей: 0
Вход на сайт