Accordium Delectus Подборка аккордов
 
Главная > З > Звери > Мачты

Звери: Мачты



Вступление (играется вся песня):

   H5   Hsus2  Esus2      H    E/H    H   
E|------------------------2--2--0--0--2-|
H|-----0------0------0----4--4--0--0--4-|
G|------------------------4--4--1--1--4-|
D|---4------4------4------4--4--2--2--4-|
A|-2------4------7--------2--2--2--2--2-|
E|--------------------------------------|

H5              Hsus2        Esus2               
Словно мачты корабельные,
H5             Hsus2        Esus2      
Спят деревья за окном
H5               Hsus2         Esus2              
Слушай, детка, колыбельную,
H           E/H                   H         
Засыпай хорошим сном

Пусть тебе приснятся быстрые,
Неземные корабли
Пусть приснится небо чистое
Неизведанной земли

Пусть окажутся нескучными
Все твои цветные сны
Завтра мы проснёмся лучшими
Без вина и без вины

Наши корабли качаются
На серебряной волне
Колыбельная кончается,
Надо спать тебе и мне

Словно мачты корабельные,
Спят деревья за окном
Слушай, детка, колыбельную,
Засыпай хорошим сном,
Засыпай хорошим сном

Окончание:

    H    E/H    H   
E|-2--2--0--0--2-|
H|-4--4--0--0--4-|
G|-4--4--1--1--4-|
D|-4--4--2--2--4-|
A|-2--2--2--2--2-|
E|---------------|
 
Последние комментарии

"Абсолютно!"
 

"Прекрасно!"
 

"50 лет эту песню слушаю и пою, 50 лет восхищаюсь"
 

"🔥Привет всё хорошо мне всё понравилось,нравится я в восторге и радуюсь наслаждаясь такой прекрасной правильной умной даже нравственной песне. Спасибо! Антон из Челябинска пока 🖐"
 

".....аккорды ложь....там увеличенные септы, девятки-ноны, 11...."
Вход на сайт