Accordium Delectus Подборка аккордов
 
"
Главная > З > Звери > Уходи

Звери: Уходи



Вступление:

E|--------------------------------------------------|
H|-7----8--7--7----8--7--------7------------7-------|
G|----0----------0----------------9------------9----|
D|--------------------------10------10---10------10-|
A|-7----------6-------------------------------------|
         E|-----------------------8--------------------------| - 2 раза

1.

E|--------------------------------------------------|
H|-7----8--7--7----8--7--------7------------7-------|
G|----0----------0----------------9------------9----|
D|--------------------------10------10---10------10-|
A|-7----------6-------------------------------------|
E|-----------------------8--------------------------|
            Уходи, хватит просто сидеть                  
E|--------------------------------------------------|
H|-7----8--7--7----8--7--------7------------7-------|
G|----0----------0----------------9------------9----|
D|--------------------------10------10---10------10-|
A|-7----------6-------------------------------------|
E|-----------------------8--------------------------|
      Мы с тобою      запутались в сеть              

E|------0------------0------------0------------0------|
H|-7-------7----7-------7------------7------------7---|
G|----7------7-----7------7-----7------7-----7------7-|
D|-0------------0-------------------------------------|
A|----------------------------------------------------|
E|---------------------------7------------7-----------|
            По волнам,  по бескрайним     морям              
E|------------------------------|
H|-------7--------------7-------|
G|----------9--------------9----|
D|----10------10-----10------10-|
A|------------------------------|
E|-8--------------8-------------|

2.

E|--------------------------------------------------|
H|-7----8--7--7----8--7--------7------------7-------|
G|----0----------0----------------9------------9----|
D|--------------------------10------10---10------10-|
A|-7----------6-------------------------------------|
E|-----------------------8--------------------------|
       Не спеши,  будем долго       гореть,          
E|--------------------------------------------------|
H|-7----8--7--7----8--7--------7------------7-------|
G|----0----------0----------------9------------9----|
D|--------------------------10------10---10------10-|
A|-7----------6-------------------------------------|
E|-----------------------8--------------------------|
        Мы лежим   на холодной     траве             
E|------0------------0------------0------------0------|
H|-7-------7----7-------7------------7------------7---|
G|----7------7-----7------7-----7------7-----7------7-|
D|-0------------0-------------------------------------|
A|----------------------------------------------------|
E|---------------------------7------------7-----------|
           Я тебя       никому      не отдам           
E|---------------|
H|-------7-------|
G|----------9----|
D|----10------10-|
A|---------------|
E|-8-------------|

Припев:

E|-----------------------------------------------------------0------|
H|-7----8--7----7----8--7----7----8--7-----7----8--7------------7---|
G|----0------------0------------0-------------0------------5------5-|
D|-----------9--0---------9------------10------------9--------------|
A|-7----------------------------------------------------0-----------|
E|---------------------------8-------------7------------------------|
           Я тебя                     никому      не отдам...        
E|-----------------------------------------------------------0------|
H|-7----8--7----7----8--7----7----8--7-----7----8--7------------7---|
G|----0------------0------------0-------------0------------5------5-|
D|-----------9--0---------9------------10------------9--------------|
A|-7----------------------------------------------------0-----------|
E|---------------------------8-------------7------------------------|

3.

Расскажи, только не торопись,
Я без памяти, я чистый лист
Нарисуй, напиши, кто я есть

Припев - 2 раза.
 
Поделись с друзьями:
 
 
Последние комментарии

"Здравствуйте! В тексте написан аккорд Gm/E, а при наведении мышкой выскакивает Em7-5. Что должно быть на самом деле?"
 

"Очень красивая песня"
 

"Понимаю песню."
 

"Амэнь!"
 

"В Иркутске опять дождь и монотонный и ленивый)))"
Настройка гитары
1-ая струна E (ми)  

2-ая струна H (си)  

3-я струна G (соль) 

4-ая струна D (ре) 

5-ая струна A (ля) 

6-ая струна E (ми) 
Статистика

Онлайн всего: 34
Гостей: 34
Пользователей: 0
Вход на сайт