Accordium Delectus Подборка аккордов Главная Отзывы Заявка на песню Аккорды Табы Новости Видео Статьи FAQ О сайте
А   Б   В   Г   Д   Е   Ё   Ж   З   И   Й   К   Л   М   Н   О   П   Р   С   Т   У   Ф   Х   Ц   Ч   Ш   Щ   Э   Ю   Я
 
A   B   C   D   E   F   G   H   I   J   K   L   M   N   O   P   Q   R   S   T   U   V   W   Y   Z                       0...9
Разделы сайта
                   
Настройка гитары
1-я струна E  

2-я струна H  

3-я струна G  

4-я струна D  

5-я струна A  

6-я струна E  
Главная > Р > Розенбаум Александр > Вечерняя застольная

Александр Розенбаум - Вечерняя застольная Аккорды и текст песни, табы



Вступление:

  Gm                             D7                           

E|-----3>5---5>6---6>5---5>3---3----5>6---6>8---8>6---6>5---5-|

H|------------------------------------------------------------|

G|---3-----5-----7-----5-----3----------7-----8-----7-----5---|

D|--------------------------------0---------------------------|

A|------------------------------------------------------------|

E|-3----------------------------------------------------------|

 

  Gm                                     G                                          

E|-----6>8---8>10----10>8---8>10-----10-------8>10----10>13----13>11----11>10----10-|

H|----------------------------------------------------------------------------------|

G|---7-----8------10------8-------10--------8------10-------13-------12-------10----|

D|-5--------------------------------------------------------------------------------|

A|---------------------------------------10-----------------------------------------|

E|----------------------------------------------------------------------------------|

 

 Cm/A               D7                                 

E|-----------------------------------------------------|

H|-------4--------4--------3-------3---4-----3-----3---|

G|-----5---5-------------5---5-------------5-----5-----|

D|---5-------5---------4-------4-----4---4-----4-----4-|

A|-0------------0----5-----------5---------------------|

E|-----------------------------------------------------|


Gm                  D7                                                   
Чёрт с ними! За столом сидим, поём, пляшем...
Gm                     G                                               
Поднимем эту чашу за детей наших
Cm/A       D7  Gm         D#9    D#7   
И скинем с головы иней,
Cm/A               D7       Gm         
Поднимем, поднимем
И скинем с головы иней,
Поднимем, поднимем

----------------------------------------------------------------------------------------------

Gm           Cm/A                          D7               
За утро        и за свежий из полей ветер,
Gm                    Dm7-5             G  
За друга, не дожившего до дней этих,
Cm/A      D7                Gm   D#9 D#7     
За память, что живёт с нами,
Cm/A             D7    Gm           
Затянем, затянем
За память, что живёт с нами,
Затянем, затянем

Бог в помощь всем живущим на земле людям,
Мир дому, где собак и лошадей любят
За силу, что несут волны,
По полной, по полной!
За силу, что несут волны,
По полной, по полной!

Родные, нас живых ещё не так мало,
Поднимем, поднимем за удачу на тропе шалой,
Чтоб ворон, да не по нам каркал,
По чарке, по чарке!
Чтоб ворон, да не по нам каркал,
По чарке, по чарке!

Проигрыш:

  Gm                             D7                            

E|-----3>5---5>6---6>5---5>3---3----5>6---6>8---8>6---6>5---5-|

H|------------------------------------------------------------|

G|---3-----5-----7-----5-----3----------7-----8-----7-----5---|

D|--------------------------------0---------------------------|

A|------------------------------------------------------------|

E|-3----------------------------------------------------------|

 

  Gm                                     G                                           

E|-----6>8---8>10----10>8---8>10-----10-------8>10----10>13----13>11----11>10----10-|

H|----------------------------------------------------------------------------------|

G|---7-----8------10------8-------10--------8------10-------13-------12-------10----|

D|-5--------------------------------------------------------------------------------|

A|---------------------------------------10-----------------------------------------|

E|----------------------------------------------------------------------------------|


Чтоб ворон, да не по нам каркал,
По чарке, по чарке!

Окончание:

  Gm                                 

E|-----3>5---5>6---6>5---5>3---3---3-|

H|---------------------------------3-|

G|---3-----5-----7-----5-----3-----3-|

D|---------------------------------5-|

A|---------------------------------5-|

E|-3-------------------------------3-|

 
Новые добавления
Статистика

Онлайн всего: 42
Гостей: 42
Пользователей: 0

Яндекс.Метрика

Вход на сайт