Accordium Delectus Подборка аккордов Главная Отзывы Заявка на песню Аккорды Табы Новости Видео Статьи FAQ О сайте
А   Б   В   Г   Д   Е   Ё   Ж   З   И   Й   К   Л   М   Н   О   П   Р   С   Т   У   Ф   Х   Ц   Ч   Ш   Щ   Э   Ю   Я
 
A   B   C   D   E   F   G   H   I   J   K   L   M   N   O   P   Q   R   S   T   U   V   W   Y   Z                       0...9
Разделы сайта
                   
Настройка гитары
1-я струна E  

2-я струна H  

3-я струна G  

4-я струна D  

5-я струна A  

6-я струна E  

Александр Топчий: Офицерский романс (фильм Цена сокровищ)




Вступление (примерный вариант перебора на гитаре):

  Gm         Gm/B  Cm/A         D7    Gm         Gm/B  Cm/A         D7        

E|---------------------------------------------------------------------------|

H|-------3---------3-------4-----------------3---------3-------4-----------7-|

G|-----3---3-----3-------5---5-------5-----3---3-----3-------5---5-------5---|

D|---5-------5---------5-------5---7-----5-------5---------5-------5---7-----|

A|-------------------------------5-----------------------------------5-------|

E|-3-----------6-----5-----------------3-----------6-----5-------------------|

  Gm                                    

E|-------------------------------------|

H|-------------3-----------------3-----|

G|-------3-------3---------3-------3---|

D|-----5---5-------5-----5---5-------5-|

A|---5-------5---------5-------5-------|

E|-3-----------------3-----------------|

Соло

E|-15--10----11-10----------11----10-------------------------------------------|

H|-----------------13-12-13----------10-13-11------10-8------------------------|

G|-----------------------------------------------7---------10-8--7-8-------5>7-|

D|-------------------------------------------------------7-----------10--------|

A|-----------------------------------------------------------------------------|

E|-----------------------------------------------------------------------------|


   Gm                                        
Куда бы лихая судьба ни носила,
      Gm                                 Cm
Но в сердце негромко поют голоса
    D7                                          
О долгой дороге, о снежной России
   Cm                             D7        Gm
Высоким, прозрачным, чужим небесам

     Gm                                           
Растрёпанной гривой колышутся травы
   G7                                     Cm 
И карта, как сотни залатанных дыр
      Cm                       D7         D#    
Не бренною силой, но бранною славой
     Cm6                      D7           Gm 
Потрёпанный, но непорочный мундир

Проигрыш (переход на 1 полутон (на 1 лад) выше (G#m):

  Gm                                                    D#7                  

E|-------------------------------------------------------------------6-----|

H|-------------3-----------------3-----------------3-----------8-------8---|

G|-------3-------3---------3-------3---------3-------3-------6---6-------6-|

D|-----5---5-------5-----5---5-------5-----5---5-------5---8-------8-------|

A|---5-------5---------5-------5---------5-------5-------6-----------------|

E|-3-----------------3-----------------3-----------------------------------|


  G#m                                          
Заря наколдует малиновый отблеск,
   G#m               G#/C     C#m
И небо светлеет уже впереди
      D#7                                           
От страха спасёт офицерская доблесть,
     C#m                    D#7       G#m
От пули - святой образок на груди

    G#m                                            
Тернистой тропой или стёжкой пологой,
     G#7                                          C#m 
Всё дальше, всё явственней день ото дня -
  C#m                   D#7         E      
Куда б ни идти этой долгой дорогой,
         C#m6                     D#7          G#m  E7
Но это - единственный путь для меня

Переход на 1 полутон выше (Am)

Проигрыш:

Am  Am  Am  Dm  E7  E7  Dm  E7 Am

Am  Am/C  A7/C#  Dm  Dm  E7 F  Dm6  E7 Am

        Am                                                   
Пусть манит шарманщик счастливым билетом,
     Am                                              Dm  
Что толку  в бессмысленных, сладких речах?
       E7                                    
Мне вера защитой, пока эполеты,
      Dm                    E7          Am 
Как божьи ладони, лежат на плечах

    Am                                          
О грусти напев, о любви и разлуке,
    Am                  A7/C#        Dm  
И станет легко и печально до слёз
  Dm                       E7         F    
Я вижу во сне Ваши нежные руки
  Dm6                 E7(7)                  
И тонкие ветки российских берёз...

Окончание:

  Am         Am/C   Dm          E7    Am         Am/C   Dm            

E|-----------------0-------1-----------------0---------0-------1-----|

H|-------1-------1-------3---3-------3-----1---1-----1-------3---3---|

G|-----2---2-----------2-------2---1-----2-------2---------2-------2-|

D|---2-------2-------0-----------------------------------0-----------|

A|-0-----------3-----------------------0-----------3-----------------|

E|-------------------------------0-----------------------------------|

 E7(7)        Am(5)          

E|---------7--------------5-|

H|-------9--------------5---|

G|-----7--------------5-----|

D|---9--------------7-------|

A|-7--------------7---------|

E|--------------5-----------|

Соло

E|-17--12----13-12----------13----12---------------------------------------|

H|-----------------15-14-15----------12-15-13------12-10-------------------|

G|-----------------------------------------------9----------12-10--9-10----|

D|--------------------------------------------------------9-------------12-|

A|-------------------------------------------------------------------------|

E|-------------------------------------------------------------------------|


E|-------------------|

H|-------------------|

G|-7>9----7>9----7>9-|

D|-------------------|

A|-------------------|

E|-------------------|

Бой на гитаре (примерный вариант):

 
Новые добавления
Статистика

Онлайн всего: 102
Гостей: 101
Пользователей: 1
Justas

Яндекс.Метрика

Вход на сайт