Accordium Delectus Подборка аккордов Главная Отзывы Заявка на песню Аккорды Табы Новости Видео Статьи FAQ О сайте
А   Б   В   Г   Д   Е   Ё   Ж   З   И   Й   К   Л   М   Н   О   П   Р   С   Т   У   Ф   Х   Ц   Ч   Ш   Щ   Э   Ю   Я
 
A   B   C   D   E   F   G   H   I   J   K   L   M   N   O   P   Q   R   S   T   U   V   W   Y   Z                       0...9
Разделы сайта
                   
Настройка гитары
1-я струна E  

2-я струна H  

3-я струна G  

4-я струна D  

5-я струна A  

6-я струна E  
Главная > Б > Белый орёл > Как упоительны в России вечера

Белый орёл: Как упоительны в России вечера


Вступление:

                              F#m  H7                      Emaj7       G#7    

E|-------------5-4-11--9-----------------------------------------------------|

H|---4---7--5-------------9-12-10------10-10-9-10--9--10-12-10--9--8-9-10--9-|

G|-----6---------------------------------------------------------------------|

D|-6-------------------------------------------------------------------------|

A|---------------------------------------------------------------------------|

E|---------------------------------------------------------------------------|

C#m       C#m7     F#m/A    F#m6             C#m/G#         G#          C#m    

E|---------------5-4-7--5-4-5-4-------14-12-11--------------12-11------------|

H|-----4---7--5------------------7-------------14------------------14-13-14--|

G|-------6-----------------------------------------13-12-13------------------|

D|---6-----------------------------------------------------------------------|

A|---------------------------------------------------------------------------|

E|---------------------------------------------------------------------------|


соло                          
Как упоительны в России вечеpа!
H7                                    Emaj7      G#7            
Любовь, шампанское, закаты, переулки...
C#m              C#m7      F#m/A       F#m6           
Ах, лето красное, забавы и прогулки!
       C#m/G#              G#       C#m
   Как упоительны в России вечеpа...

                C#7         C#7/F       F#m
Балы, красавицы, лакеи, юнкера
                      Gdim7            D#7                    G#7(2)   C#m
И вальсы Шуберта, и хруст французской булки,
          соло-2                                                     F#m6
Любовь, шампанское, закаты, переулки...
       C#m/G#       G#7sus4 G#      C#m
Как упоительны в России        вечера!


Как упоительны в России вечера!
В закатном блеске пламенеет снова лето,
И только небо в голубых глазах поэта...
Как упоительны в России вечера!

Пускай всё сон, пускай любовь - игра,
Hу что тебе мои порывы и объятья?
Hа том и этом свете буду вспоминать я,
                  C#m/G#         G#7sus4 G#      C#m  A  Dm
Как упоительны в России         вечера!

Переход на 1 полутон (на 1 лад) выше (Dm)

Проигрыш:

                                 Gm  C7                       Fmaj7          A7       

E|-------------6-5-12--10-----------------------------------------------------------|

H|---5---8--6--------------10-13-11------11-11-10-11--10--11-13-11--10--9-10-11--10-|

G|-----7----------------------------------------------------------------------------|

D|-7--------------------------------------------------------------------------------|

A|----------------------------------------------------------------------------------|

E|----------------------------------------------------------------------------------|

Dm        Dm7      Gm/B      Gm6           Dm/A             A           Dm        

E|---------------6-5-8--6-5-6-5-------15-13-12--------------13-12------------|

H|-----5---8--6------------------8-------------15------------------15-14-15--|

G|-------7-----------------------------------------14-13-14------------------|

D|---7-----------------------------------------------------------------------|

A|---------------------------------------------------------------------------|

E|---------------------------------------------------------------------------|


                  D7      D7/F#               Gm
Пускай всё сон, пускай любовь - игра,
                  G#dim7        E7         A7(2)     Dm
Hу что тебе мои порывы и объятья?
            соло-3                                                   Gm6
Hа том и этом свете буду вспоминать я,
                 Dm/A             A7sus4 A        Dm  Gm6
Как упоительны в России      вечера!
Как упоительны в России вечера!
       Dm/A                   A         Dm
Как упоительны в России вечера!

Окончание:

E|-------------6-5-12--10---------|

H|---5---8--6-------------------3-|

G|-----7----------------------2---|

D|-7------------------------0-----|

A|--------------------------------|

E|--------------------------------|

Бой на гитаре (примерный вариант):

 
 
Новые добавления
Статистика

Онлайн всего: 72
Гостей: 72
Пользователей: 0

Яндекс.Метрика

Вход на сайт