Accordium Delectus Подборка аккордов Главная Отзывы Заявка на песню Аккорды Табы Новости Видео Статьи FAQ О сайте
А   Б   В   Г   Д   Е   Ё   Ж   З   И   Й   К   Л   М   Н   О   П   Р   С   Т   У   Ф   Х   Ц   Ч   Ш   Щ   Э   Ю   Я
 
A   B   C   D   E   F   G   H   I   J   K   L   M   N   O   P   Q   R   S   T   U   V   W   Y   Z                       0...9
Разделы сайта
                   
Настройка гитары
1-я струна E  

2-я струна H  

3-я струна G  

4-я струна D  

5-я струна A  

6-я струна E  

Дима Власкин: Да или нет (сериал Физрук)



Вступление:

   Am                                           

E|----------------12-----------------------12-|

H|-10---12-13-10--------10----10-12-13-10-----|

G|--------------------------------------------|

D|--------------------------------------------|

A|--------------------------------------------|

E|--------------------------------------------|

 

  Em                                           

E|--------------------------------------------|

H|--------------12-------------------12-------|

G|-9---11-12-9--------9---9-11-12-9-----------|

D|--------------------------------------------|

A|--------------------------------------------|

         E|--------------------------------------------| - 2 раза


Am                                                          
Детка, когда увидел тебя забыл как дышать,
    Am                                               Em
И где-то внизу живота пульсировала душа
         Em                                              
Я смотрел в эти глаза и понимал, что тону,
             Em                                  Am
Среди огромной толпы видел тебя одну

Мы не играем в любовь, это реальные чувства,
Мне с тобой хорошо, без тебя грустно
Пусть я пока не звезда и с деньгами не очень,
Зато я знаю, как заставить стонать тебя  ночью

Припев:

Am                                              
Если ты мне веришь, тебя обниму,
         C                  
И мы выключим свет
     Em                                 
Скажи мне только - да или нет,
Скажи мне, детка - да или нет

Если ты захочешь, 
Я буду с тобой две тысячи лет
Скажи мне только - да или нет.
Скажи мне, детка - да или нет

Проигрыш:

   Am                                           

E|----------------12-----------------------12-|

H|-10---12-13-10--------10----10-12-13-10-----|

G|--------------------------------------------|

D|--------------------------------------------|

A|--------------------------------------------|

E|--------------------------------------------|

 

  Em                                           

E|--------------------------------------------|

H|--------------12-------------------12-------|

G|-9---11-12-9--------9---9-11-12-9-----------|

D|--------------------------------------------|

A|--------------------------------------------|

E|--------------------------------------------|


Детка, не верь никому, кто в нас не верит,
Мне не нужны "понты", мне важно твоё доверие
Любовь не сладкая сказка и не ванильная чушь
Это битва, проверка, соединение душ

Пусть иногда будут ссоры, они закаляют сердца,
Я не умею проигрывать, я иду до конца
Когда знаешь, за что бороться, надо идти на риск,
Я выиграл лотерею, и ты детка - мой приз

Припев.

Окончание:

   Am                   C                      

E|----------------12-----------------------12-|

H|-10---12-13-10--------10----10-12-13-10-----|

G|--------------------------------------------|

D|--------------------------------------------|

A|--------------------------------------------|

E|--------------------------------------------|

 

  Em                                          

E|--------------------------------------------|

H|--------------12-------------------12-------|

G|-9---11-12-9--------9---9-11-12-9-----------|

D|--------------------------------------------|

A|--------------------------------------------|

         E|--------------------------------------------| - 2 раза

Примерный вариант боя:

 
Новые добавления
Статистика

Онлайн всего: 21
Гостей: 21
Пользователей: 0

Яндекс.Метрика

Вход на сайт