Accordium Delectus Подборка аккордов Главная Отзывы Заявка на песню Аккорды Табы Новости Видео Статьи FAQ О сайте
А   Б   В   Г   Д   Е   Ё   Ж   З   И   Й   К   Л   М   Н   О   П   Р   С   Т   У   Ф   Х   Ц   Ч   Ш   Щ   Э   Ю   Я
 
A   B   C   D   E   F   G   H   I   J   K   L   M   N   O   P   Q   R   S   T   U   V   W   Y   Z                       0...9
Разделы сайта
                   
Настройка гитары
1-я струна E  

2-я струна H  

3-я струна G  

4-я струна D  

5-я струна A  

6-я струна E  

Дмитрий Быковский - Облака (из к/ф "Просто Джексон") Аккорды и текст песни




Am                                       
Они летят, да за тобой,
Hm7-5                          E              
Они летят к тебе
Am                                               
Я им кричу: "Возьми с собой,
Gm                            A7       
Мне здесь не по себе!"

Dm                                      
Но молча тянут облака
         G              C  A7
За речки поворот
Dm                      Am             
Они не слышат казака,
Hm7-5                E  Am           
Им ветер не даёт


Их ветер - батька-атаман,
Их ветер - генерал
Он прилетел из дальних стран,
Тебя с собой забрал

А мне бы шашкою взмахнуть,
Да ветер изрубить
А мне б напиться, да уснуть,
Чтоб про тебя забыть


Но не смогу, но не смогу,
То воля не моя
И здесь, на этом берегу,
Стоять останусь я

Тут, за высокою травой,
Тут, где течёт река
Я здесь один, а там с тобой -
Скажите, облака...

Окончание - 2 раза:

  Am                  Hm7-5             E       

E|------------------5--------------------------|

H|--3>5-3-5----3-5----5----3-3-----------------|

G|-----------------------------5-4--2-2>4------|

D|---------------------------------------------|

A|---------------------------------------------|

E|---------------------------------------------|

  Am                    Gm              A7      

E|------------------5------3-3-3--3--5-5>6---5-|

H|--5-5-3-5----3-5----5------------------------|

G|---------------------------------------------|

D|---------------------------------------------|

A|---------------------------------------------|

E|---------------------------------------------|

  Dm                  G               C   A7     

E|--5-5-3-5--3-5--3-5----3-3--------------3----|

H|---------------------------6-5--3-3>5--------|

G|---------------------------------------------|

D|---------------------------------------------|

A|---------------------------------------------|

E|---------------------------------------------|

  Dm          Am    Hm7-5      E    Am          

E|--3-3----------------------------------------|

H|------6-5--3-5----5----5-5-6-5--3------------|

G|----------------5------------------2---------|

D|---------------------------------------------|

A|---------------------------------------------|

E|---------------------------------------------|

 
Новые добавления
Статистика

Онлайн всего: 24
Гостей: 24
Пользователей: 0

Яндекс.Метрика

Вход на сайт