Accordium Delectus Подборка аккордов Главная Отзывы Заявка на песню Аккорды Табы Новости Видео Статьи FAQ О сайте
А   Б   В   Г   Д   Е   Ё   Ж   З   И   Й   К   Л   М   Н   О   П   Р   С   Т   У   Ф   Х   Ц   Ч   Ш   Щ   Э   Ю   Я
 
A   B   C   D   E   F   G   H   I   J   K   L   M   N   O   P   Q   R   S   T   U   V   W   Y   Z                       0...9
Разделы сайта
                   
Настройка гитары
1-я струна E  

2-я струна H  

3-я струна G  

4-я струна D  

5-я струна A  

6-я струна E  
Главная > E > Elf > Happy

Elf - Happy Аккорды и текст песни




E|---------------------------------------|

H|---------------------------------------|

G|---------------------------------------|

D|---------------------------------------|

A|------2----------------3-------2-------|

E|-0--------4-----0----------4-------4---|

   Very, very happy that you're     so    happy,       

E|---------------------------------------|

H|---------------------------------------|

G|---------------------------------------|

D|--------------------0------------------|

A|-4----2-----------------4-2----------0-|

E|----------0-----4--------------0---4---|

   Very,  very happy  for  you                               

E|---------------------------------------|

H|---------------------------------------|

G|---------------------------------------|

D|--------------4-----1------------------|

A|-1-2---------------------2----1-0------|

E|---------------------------------------|

      Looking round  every cor---ner                       

E|---------------------------------------|

H|---------------------------------------|

G|------------------------1--------------|

D|--------1-2-------4---------2----------|

A|-2-4----------------------------2------|

E|------------------------------------4--|

 I'm happy to see that you're  happy                    

  Em                    D#+5                           
Special situations, pleasant demonstrations
             G/D                      C#dim
'Til the cat rolled out of the bag
       C                                  H7   
You let me get my hopes too high,
                      Em    
But now you're happy

Crazy kind of feeling, hanging from the ceiling
With a bag tied over my head
You won't let the sun shine in, but now you're

  E                                     G#/C              
Very, very happy that you're       so happy,
C#m                         E7  
Very, very happy for you
  H7                                   
Looking round every corner
  A7                           E      
Look, I'm glad you're happy

Проигрыш:

|Em  Em|D#+5  D#+5|G/D  G/D|C#dim7  C#dim7|C  C|H7  H7|

|E  E|G#/C  G#/C|C#m  C#m|E7  E7|H7  H7|A7  A7|E  E|

Too much aggravation, time is kind of wasting
Got to get while I'm still alive
You're never gonna stop me now, but Lord you're

  E                      
Very, very happy,
  Em                   
Special situations
Dadd9                    
Very, very happy,
 Em                              
Pleasant demonstration...

Бой на гитаре (примерный вариант):

 
Новые добавления
Статистика

Онлайн всего: 19
Гостей: 19
Пользователей: 0

Яндекс.Метрика

Вход на сайт