Accordium Delectus Подборка аккордов Главная Отзывы Заявка на песню Аккорды Табы Новости Видео Статьи FAQ О сайте
А   Б   В   Г   Д   Е   Ё   Ж   З   И   Й   К   Л   М   Н   О   П   Р   С   Т   У   Ф   Х   Ц   Ч   Ш   Щ   Э   Ю   Я
 
A   B   C   D   E   F   G   H   I   J   K   L   M   N   O   P   Q   R   S   T   U   V   W   Y   Z                       0...9
Разделы сайта
                   
Настройка гитары
1-я струна E  

2-я струна H  

3-я струна G  

4-я струна D  

5-я струна A  

6-я струна E  

Главная > Неизвестные исполнители > Не судите так строго непонятных людей

Неизвестный исполнитель - Не судите так строго непонятных людей Текст песни с аккордами

По заказу Евгения (Санкт-Петербург)


Вступление(примерный вариант):

E|-------5-----3------------3-----2------3>2-0-------0------------2-----2---|

H|-3---3---0-----0----3---3---3-----3------0---0---0---0--------2---2-----2-|

G|---0-------0----------2-------2----------------0------------2-------2-----|

D|--------------------0------------------2------------------4---------------|

A|--------------------------------------------------------------------------|

          E|-3------------------------------------------------------------------------| - 2 раза


     Gsus2            
Может быть, не со мной
       D            
Может быть, не тогда
    Em           
Не упала на землю
   F#m          
Несчастья звезда

Может быть, позабыл,
Может, вспомню потом...
Оглянулся назад -
Всё уж скрыто дождём

     Hm           
Развязал и запутал,
        F#m          
Лишь поднял – упустил
    Gsus2            
Покрывал светом тень –
          D     A 
Свет в тени утопил

Укрывался от зверя,
Что стоял у дверей
Не судите так строго
Непонятных людей

Проигрыш(примерный вариант):

E|-------5-----3------------3-----2------3>2-0-------0------------2-----2---|

H|-3---3---0-----0----3---3---3-----3------0---0---0---0--------2---2-----2-|

G|---0-------0----------2-------2----------------0------------2-------2-----|

D|--------------------0------------------2------------------4---------------|

A|--------------------------------------------------------------------------|

E|-3------------------------------------------------------------------------|



Отдавал это утро
Фонарным лучам
Шёл спиною вперёд,
Шёл, да молча кричал

Упивался водой
Из прошедших дорог...
Только звери чужие
Оббили порог


Солнце снова на запад,
Я опять на восток
Пробиваюсь сквозь небо,
Небо взводит курок

Стынут звёзды в глазах,
Небо снова сильней
Не судите так строго
Непонятных людей

Проигрыш(примерный вариант):

E|-------5-----3------------3-----2------3>2-0-------0------------2-----2---|

H|-3---3---0-----0----3---3---3-----3------0---0---0---0--------2---2-----2-|

G|---0-------0----------2-------2----------------0------------2-------2-----|

D|--------------------0------------------2------------------4---------------|

A|--------------------------------------------------------------------------|

          E|-3------------------------------------------------------------------------| - 2 раза



Ночи путают мысли,
Дни запутают век
Зарываю я письма
В свежевыпавший снег

Закурил тишину,
Посмотрел на окно:
В том окне стою я
И дышу на стекло


И опять поутру
Не ищу я ночей
Ночи сами находят,
Ночи света быстрей

Мы в ладах с темнотой,
Лишь хватило б свечей
Не судите так строго
Непонятных людей

Проигрыш: A Asus4 A

       Gsus2         
Придёт время, захочешь
      D         A  
Ты ослушаться дней,
    Gsus2             
Отрастить себе крылья,
    D          A 
Заорать посильней

     Hm         
Не захочешь идти
      F#m        
По стопам королей
   Gsus2        
Не осудишь тогда
     D        A 
Непонятных людей

Окончание(примерный вариант):

E|-------5-----3------------3-----2------3>2-0-------0------------2-----2---|

H|-3---3---0-----0----3---3---3-----3------0---0---0---0--------2---2-----2-|

G|---0-------0----------2-------2----------------0------------2-------2-----|

D|--------------------0------------------2------------------4---------------|

A|--------------------------------------------------------------------------|

E|-3------------------------------------------------------------------------|

 
Новые добавления
Статистика

Онлайн всего: 54
Гостей: 54
Пользователей: 0

Яндекс.Метрика

Вход на сайт