Accordium Delectus Подборка аккордов Главная Отзывы Заявка на песню Аккорды Табы Новости Видео Статьи FAQ О сайте
А   Б   В   Г   Д   Е   Ё   Ж   З   И   Й   К   Л   М   Н   О   П   Р   С   Т   У   Ф   Х   Ц   Ч   Ш   Щ   Э   Ю   Я
 
A   B   C   D   E   F   G   H   I   J   K   L   M   N   O   P   Q   R   S   T   U   V   W   Y   Z                       0...9
Разделы сайта
                   
Настройка гитары
1-я струна E  

2-я струна H  

3-я струна G  

4-я струна D  

5-я струна A  

6-я струна E  

Песни под гитару: Магутны Божа



Вступление:

E|-----------0--1----0~1~0-------------0------|

H|-1------3-----------------3------0--------0-|

G|----2------------2-------------1---1----1---|

D|------2-------0-----------------------------|

A|-0------2--3--------------------------------|

E|-----------------------------0--------------|


E|-----------0--1----0~1~0-------------0------|

H|-1------3-----------------3------0----------|

G|----2------------2-------------1---1--------|

D|------2-------0-----------------------------|

A|-0------2--3--------------------------------|

E|-----------------------------0--------------|

---------------------------------------------------------------------------------------

E|-----------------------------------------------------------------------|

H|-1-------3-----1--0~1-------------1-------0---------0------------------|

G|----2-----------------2--------------2-------2--1-----1----------------|

D|------2-----2------------2-------------2-------------------------------|

A|-0-------2-----0------------------0------------------------------------|

E|------------------------------------------3--1--0----------------------|

Магу-у-у-утны       Бо-о-о-о-о-жа!      Уладар        су-у-усьветаў,                                 

E|---------------------------1----0~1~0----------------------------------|

H|-1-------3-----1--0~1-----------------3------0-------------------------|

G|----2-----------------2-------2----------------1-----------------------|

D|------2-----2--------------0---------------2---------------------------|

A|-0-------2-----0-------------------------------------------------------|

E|-----------------------------------------0-----------------------------|

Вялі-------зных     сонцаў          і сэрц             малых,                                                 

E|-0---------------------------------------------------------------------|

H|----1----3--1--3----1----0------1----0---------0-----------------------|

G|------0---------------------------------2--------1---------------------|

D|-----------------2----2----2-------3---------2-------------------------|

A|-3-------2--0--2----0--------------------------------------------------|

E|-------------------------0------1----------0---------------------------|

Над Бе-е-е-е-ла-а-а-ру-у-у-у-у-усяй,      ціхай   і       ветлай                                             

E|----------------1--------------------------|

H|-1----3----1---------1----0~1~0--------0---|

G|------------------2-------------2--------1-|

D|---2----0----2--0-------2------------2-----|

A|-0----2----0---------0---------------------|

E|-----------------------------------0-------|

 Рассып пра---мень--не    сва-а-а-а-а-а-а-а-ае...             

E|-----------0--1----0~1~0-------------0------|

H|-1------3-----------------3------0----------|

G|----2------------2-------------1---1--------|

D|------2-------0-----------------------------|

A|-0------2--3--------------------------------|

E|-----------------------------0--------------|

...хвалы                                                                                

Дай спор у працы, у дзённай, шэрай
На хлеб штодзённы, на родны край
Павагу, сілу і веліч веры
У нашу праўду, у прышласьць дай

Дай урадлівасьць жытнёвым нівам,
Учынкам нашым пайшлі ўмалот
Зрабі свабоднай, зрабі шчасьлівай

E|----------------1-------------------------------------0-|

H|-1----3----1---------1----0~1~0--------0------------1---|

G|------------------2-------------2--------1--------2-----|

D|---2----0----2--0-------2------------2----------2-------|

A|-0----2----0---------0------------------------0---------|

E|-----------------------------------0--------------------|

  Краі---ну      на-а-шу        і                     наш          народ                
 
 
Новые добавления
Статистика

Онлайн всего: 98
Гостей: 98
Пользователей: 0

Яндекс.Метрика

Вход на сайт