Accordium Delectus Подборка аккордов Главная Отзывы Заявка на песню Аккорды Табы Новости Видео Статьи FAQ О сайте
А   Б   В   Г   Д   Е   Ё   Ж   З   И   Й   К   Л   М   Н   О   П   Р   С   Т   У   Ф   Х   Ц   Ч   Ш   Щ   Э   Ю   Я
 
A   B   C   D   E   F   G   H   I   J   K   L   M   N   O   P   Q   R   S   T   U   V   W   Y   Z                       0...9
Разделы сайта
                   
Настройка гитары
1-я струна E  

2-я струна H  

3-я струна G  

4-я струна D  

5-я струна A  

6-я струна E  

Серёжа Парамонов и Большой Детский Хор: Просьба



Вступление:

E|--------0-------0-------0---------------------------------------|

H|------2---2---2---2---2---2--------0-------0-------0------------|

G|-2----------2-------2------------0---0---0---0---0---0----------|

D|----------------------------2----------2-------2----------------|

A|----------------------------------------------------------------|

E|----------------------------------------------------------------|


E|--------0-------0-------0--------------------------=------------|

H|------2---2---2---2---2---2--------0-------0----------0-------0-|

G|-2----------2-------2------------0-------0----------0-------0---|

D|----------------------------2----------2-------2----------2-----|

A|----------------------------------------------------------------|

E|----------------------------------------------------------------|



E|-0---0-0--0-0-0-0---0----0--0--0--0-0-0-|

H|-0---0-0--0-0-0-0---0----0--0--0--0-0-0-|

G|-0---0-0--0-0-0-0---0----0--0--0--0-0-0-|

D|----------------------------------------|

A|----------------------------------------|

E|-0---3-2--3-0-0-0---0----3--2--3--0-0-0-|

Ранена-я птица       в руки  не да--ва-лась,    

E|-3---3----3-3-3-3---0----2----0-0-0-0---|

H|-0---0-0--0-0-0-0---1----0----0-0-0-0---|

G|-0---0-0--0-0-0-0---2----2----0-0-0-0---|

D|----------------------------------------|

A|-----2-0--2---------0----2--------------|

E|-3----------3-3-3-------------0-0-0-0---|

Ранена-я птица        птицей  оставалась        

E|-3----3---3--3--3-3-3--0-----2-------3--3-|

H|-0----0---0--0--0-0-0--1-----3-------0--0-|

G|-0----0---0--0--0-0-0--0-----2-------0--0-|

D|-----------------------------0------------|

A|------2---0--2---------3-------------2----|

E|-3--------------3-3-3-------------------3-|

   Этот сон давнишний       до сих пор мне снится:


E|-0----0-----0---0-0------0---2----0-0-0-0-|

H|-1----1-----0---0-0------1---0----0-0-0-0-|

G|-2----2-----0---0-0------2---2----0-0-0-0-|

D|------------------------------------------|

A|-0----0-----2------------0---2------------|

E|----------------0-0---------------0-0-0-0-|

   На траве кровавой          вздрагивает птица          

Припев:

E|-0--0---0--0---0--0--0--0---0-0-|

H|-0--1---0--0---0--0--0--0---0-0-|

G|-0--2---0--0---0--0--0--0---0-0-|

D|--------------------------------|

A|----0---------------------------|

E|-0------3--3---2--3--3--0---0-0-|

  Пти-цы,  ры-бы    и зве---е---е--ри       

E|-0--0---0--0--0---0--0--0---0-0-|

H|-0--1---0--0--0---0--0--0---0-0-|

G|-0--2---0--0--0---0--0--0---0-0-|

D|--------------------------------|

A|----0---------------------------|

E|-0------3--3--2---3--3--2---0-0-|

 В души    лю--у-дям смо--о---о--трят      

E|-0-0---0-3--0--0-0-0--0-0-0------0--2---0-|

H|-0-1---1-0--1--0-0-0--0-0-1------0--0---0-|

G|-0-0---0-0--2--0-0-0--0-0-2------0--2---0-|

D|------------------------------------------|

A|---3---3-2--0-------------0---------------|

E|-0-------------3-3-2--0-0--------3--2---0-|

   Вы  их жалейте, лю-у-у-ди,      не убивайте  зря!  

E|-0--0--0--0----0-0-0-0--1-1-1-1-1-1-1-1-|

H|-0--0--0--0----3-3-3-3--1-1-1-1-1-1-1-1-|

G|-1--1--1--1----1-1-1-1--2-2-2-2-2-2-2-2-|

D|----------------------------------------|

A|----------------------------------------|

E|-0--0--0--0----0-0-0-0--1-1-1-1-1-1-1-1-|

 Ведь не--е--бо  без  птиц   - не не-е-бо,                          

E|-0--0--0--0----0-0-0-0--1-1-1-1-1-1-1-1-|

H|-0--0--0--0----3-3-3-3--1-1-1-1-1-1-1-1-|

G|-1--1--1--1----1-1-1-1--2-2-2-2-2-2-2-2-|

D|----------------------------------------|

A|----------------------------------------|

E|-0--0--0--0----0-0-0-0--1-1-1-1-1-1-1-1-|

 А мо--о--ре без    рыб не      мо-оре,                     

E|-0--0--0---0---0-0-0-0--1-1-1-1-1-1-1-1-|

H|-0--0--0---0---3-3-3-3--1-1-1-1-1-1-1-1-|

G|-1--1--1---1---1-1-1-1--2-2-2-2-2-2-2-2-|

D|----------------------------------------|

A|----------------------------------------|

E|-0--0--0---0---0-0-0-0--1-1-1-1-1-1-1-1-|

И земля       без зве---рей не земля,                               

E|-0-----0-----2-----0--------------------|

H|-1-----0-----0-----0--------------------|

G|-2-----0-----2-----0--------------------|

D|----------------------------------------|

A|-0-----2-----2--------------------------|

E|-------------------0--------------------|

   Не  земля,      не  земля!                                   


Люди-исполины,
Люди-великаны,
Есть у вас винтовки,
Сети и капканы

Есть у вас бесстрашье,
Сила есть навечно,
И должно быть сердце -
Сердце человечье

Припев.

Люди-человеки,
Страны и народы,
Мы теперь навечно
Должники природы

Надо с этим долгом
Как-то расплатиться,
Пусть расправит крылья
Раненая птица!

Припев.

Окончание:

                                  2 раза                                                        конец

E|:--------0-------0-------0------------------------------:|------------:|

H|:------2---2---2---2---2---2--------0-------0-------0---:|------0-----:|

G|:-2----------2-------2------------0---0---0---0---0---0-:|----0---0---:|

D|:----------------------------2----------2-------2-------:|-2--------2-:|

A|:-------------------------------------------------------:|------------:|

E|:-------------------------------------------------------:|------------:|

 
 
Новые добавления
Статистика

Онлайн всего: 17
Гостей: 17
Пользователей: 0

Яндекс.Метрика

Вход на сайт