Accordium Delectus Подборка аккордов Главная Отзывы Заявка на песню Аккорды Табы Новости Видео Статьи FAQ О сайте
А   Б   В   Г   Д   Е   Ё   Ж   З   И   Й   К   Л   М   Н   О   П   Р   С   Т   У   Ф   Х   Ц   Ч   Ш   Щ   Э   Ю   Я
 
A   B   C   D   E   F   G   H   I   J   K   L   M   N   O   P   Q   R   S   T   U   V   W   Y   Z                       0...9
Разделы сайта
                   
Настройка гитары
1-я струна E  

2-я струна H  

3-я струна G  

4-я струна D  

5-я струна A  

6-я струна E  
Главная > А > Акимов Василий > Нелюбимая

Василий Акимов: Нелюбимая




Вступление:

      Dm7     Ddim7        Em7         Am7       

E|---------1---------1----------3-----------3---|

H|-----------1---------0----------3-----------1-|

G|-------2---------1----------4-----------------|

D|-----0---------0----------2-------------2-----|

A|--------------------------------------0-------|

E|----------------------------------------------|

Соло

E|----------------------------------------------|

H|---5-6--6-6--6>8-5----------------------------|

G|-7--------------------4-5-7--7-7--7>9-5~7~5---|

D|----------------------------------------------|

    F#dim7         E    A7sus2    A              

E|---------5------------------------------------|

H|---------4-----------0---0------2----2--------|

G|-------5---5---------1---0------2----2--------|

D|-----4-------------2---2-2------2--2---2------|

A|-------------------------0------0-------------|

E|-----------------0----------------------------|

Соло

E|----------------------------------------------|

H|----------------------------------------------|

G|---4-5--5-5--5>7-4-------4--4>6-6-------------|

D|-7--------------------2-----------------------|

      Dm7     Ddim7        Em7         Am7       

E|---------1---------1----------3-----------3---|

H|-----------1---------0----------3-----------1-|

G|-------2---------1----------4-----------------|

D|-----0---------0----------2-------------2-----|

A|--------------------------------------0-------|

E|----------------------------------------------|

Соло

E|----------------------------------8-----------|

H|---5-6--6-6--6>8-5----------------------------|

G|-7--------------------4-5-7--7-7-----7~8~7-5--|

D|----------------------------------------------|

    F#dim7                    E       Am         

E|---------5-----------5------------------------|

H|---------4-----------4----------0----1--------|

G|-------5---5-------5---5--------1----2--------|

D|-----4-----------4------------2---2--2--------|

A|-------------------------------------0--------|

E|----------------------------0-----------------|

Соло

E|----------------------------------------------|

H|----------------------------------------------|

G|---4-5--5-5--5>7-5----------4------5-2--------|

D|-7------------------------2-------------------|


                      Dm7        Ddim7       A7sus2      Am7/G
Белым снегом замело первый паводок,
                  Fdim7       Edim7        Dm           Dm/C
Я с другою за столом, это правда ли?
                              Ddim7          E             D#dim7    F#dim7 Adim7
Я с другою за столом, судьбы разные,
         Dm          Dm/C             E            
Мы похожие в одном - горе празднуем

Мы похожие в одном - оба брошены,
Бессердечия серпом в жатву скошены,
Бессердечия серпом, безразличия...
Может, легче нам вдвоём горе вычерпать?

Припев:

        Dm7    Ddim7     Em7    Am7
Нелюбимая моя, нелюди-и-мая,
     F#dim7             E      A7sus2   A 
Полюби, прошу тебя, полюби меня,
         Dm7       Ddim7     Em7 Am7
Нелюбимого меня, нелюдимого
    F#dim7                           E    Am 
Полюби, прошу тебя, полюби меня!

Проигрыш:

    Am    F#dim7    Dm       E         

E|-----------5-----5-1-----1-----0----|

H|---1---1---4---4---3---3-------0----|

G|---2-----2-5-5-----2-----------1----|

D|---2-2-----4-------0----------------|

A|---0--------------------------------|

E|---------------------------0--------|

...меня                                                         

Соло

E|------------------------------------|

H|------1>5-------------1>5-----------|

G|----------5--------2-------4--------|

D|-------------------------------6----|


Может, легче нам с тобою жить неправдою,
Если снегом замело первый паводок?
Если снегом замело чувства жаркие,
Может, будет веселее нам за чаркою?

Припев - 2 раза.
 
 
Новые добавления
Статистика

Онлайн всего: 37
Гостей: 37
Пользователей: 0

Яндекс.Метрика

Вход на сайт