Accordium Delectus Подборка аккордов Главная Отзывы Заявка на песню Аккорды Табы Новости Видео Статьи FAQ О сайте
А   Б   В   Г   Д   Е   Ё   Ж   З   И   Й   К   Л   М   Н   О   П   Р   С   Т   У   Ф   Х   Ц   Ч   Ш   Щ   Э   Ю   Я
 
A   B   C   D   E   F   G   H   I   J   K   L   M   N   O   P   Q   R   S   T   U   V   W   Y   Z                       0...9
Разделы сайта
                   
Настройка гитары
1-я струна E  

2-я струна H  

3-я струна G  

4-я струна D  

5-я струна A  

6-я струна E  
Главная > С > Самоцветы > Погода разгулялась

ВИА Самоцветы - Погода разгулялась Текст, аккорды, табы, бой





Вступление (примерный вариант):

E|-11---11-9-11--11-9-11--9--------11-11-11-9-11--11-9-11--9----------------|

H|---------------------------11-------------------------------11------------|

G|--------------------------------------------------------------------------|

D|--------------------------------------------------------------------------|

A|--------------------------------------------------------------------------|

E|--------------------------------------------------------------------------|

 

E|-----------------14--13--11-----------10-10--1111—11---------------------|

H|-9-9-9-11-12--9----------------11-11--------------------------------------|

G|--------------------------------------------------------------------------|

D|--------------------------------------------------------------------------|

A|--------------------------------------------------------------------------|

E|--------------------------------------------------------------------------|

 

 

E|-11---11-9-11--11-9-11--9--------11---11-9-11--11-9-11--9-----------------|

H|---------------------------11------------------------------11-------------|

G|--------------------------------------------------------------------------|

D|--------------------------------------------------------------------------|

A|--------------------------------------------------------------------------|

E|--------------------------------------------------------------------------|

 

E|-----------------14--13--11-----------------------------------------------|

H|-9-9-9-11-12--9----------------9-9-9--7-7-7-------------------------------|

G|---------------------------------------------10-10-10--8------------------|

D|--------------------------------------------------------------------------|

A|--------------------------------------------------------------------------|

E|--------------------------------------------------------------------------|


D#m                    B           
Милая, не думай, не гадай, 
 B          D#m     
Не гадай, не гадай
D#m                          B             
Если любишь, ветру передай, 
G#m    B   D#m
Ветру передай

G#m          F#             
Этот ветер озорной 
G#m                  D#m                   
По пятам пойдёт за мной,
G#m                           F#6          
И расскажет мне, что знает он, 
B            D#m               
Кто в кого влюблён

Припев:

D#m                    G#m   B          
А пого, погода-то разгулялась,
  B                    D#m        
Посмотри, какая благодать!
 D#m                         D#7 G#m     
Словно вся природа, да постаралась
G#m           D#m   B   D#m 
Нам свои сокровища отдать

Проигрыш:

E|-11---11-9-11--11-9-11--9---------6----10-13-10---------------------------|

H|---------------------------11-----6--------------9-11---------------------|

G|----------------------------------7---------------------------------------|

D|----------------------------------8---------------------------------------|

A|----------------------------------8---------------------------------------|

E|----------------------------------6---------------------------------------|


Милый, ты не думай, не гадай, 
Не гадай, не гадай
Если любишь, солнцу передай, 
Солнцу передай:

В этот ласковый денёк 
Я присяду на пенёк,
И поговорить найду о чём 
С солнечным лучом

Припев.

Проигрыш.

Милая, не думай, не гадай, 
Не гадай, не гадай
Если любишь, звёздам передай, 
Звёздам передай:

Я на небо погляжу, 
О тебе у звёзд спрошу
И они в ответ подарят мне 
Свет в твоём окне

Припев.

Проигрыш.

 G#m                                 D#m
(Дон-дари-дон дари-дон дари-да,
 G#m                                 D#m
Дон-дари-дон дари-дон дари-да
 G#m                           B    D#m    
Словно вся природа, да постаралась
G#m            F#6  B/F  D#m 
             Нам свои сокровища отдать) - 2 раза

Примерный вариант боя:

 
Новые добавления
Статистика

Онлайн всего: 89
Гостей: 89
Пользователей: 0

Яндекс.Метрика

Вход на сайт