Accordium Delectus Подборка аккордов Главная Отзывы Заявка на песню Аккорды Табы Новости Видео Статьи FAQ О сайте
А   Б   В   Г   Д   Е   Ё   Ж   З   И   Й   К   Л   М   Н   О   П   Р   С   Т   У   Ф   Х   Ц   Ч   Ш   Щ   Э   Ю   Я
 
A   B   C   D   E   F   G   H   I   J   K   L   M   N   O   P   Q   R   S   T   U   V   W   Y   Z                       0...9
Разделы сайта
                   
Настройка гитары
1-я струна E  

2-я струна H  

3-я струна G  

4-я струна D  

5-я струна A  

6-я струна E  
Главная > Ж > Жар-птица > Не унывай

Жар-птица: Не унывай



Вступление:

  Am                     Am                E7  

E|---5-4-3--2--1--0---------5-4-3--2--1--0----|

H|-------------------1----------------------3-|

G|--------------------------------------------|

D|--------------------------------------------|

A|-0----------------------0-------------------|

E|--------------------------------------------|


Am                         
У друга беда, как всегда,
      G                           D9          
Он пессимист, его хандрит когда
         Am G                  Am
И ерунда,   и правда-беда

Шло счастье пешком, а горести вскачь
За ним, под светофоры неудач,
Думает он, грустный, как грач

C             E/H      Am               Am7/G        
Если начальник - люминевый чайник,
Cmaj7                                          D                
Если аванс - маленький транс,
C            E/H  Am          Am7/G       
И дует губы     пылкая Люба,
Cmaj7                         F#dim7       
А Полина так глупа


А ты открой двери, включи везде свет,
На сорок бед найди один ответ,
Купишь билет - и здесь тебя нет

А если в кармане нет ни гроша,
То, может быть, жизнь тем и хороша,
Что в каждом кармане - чехол для шиша

Мало ли дела нам подоспело,
Мало ли мест, где платят за крест
Мир так огромен, мы его строим
И уроним, может быть

Припев:

          Am             Em  
Не унывай и не горюй,
 H7                                    Em                E  
Делай то, что хочешь, кого хочешь зацелуй
          Am               Em 
Не унывай и не грусти,
     H7                               Em
Тогда с удачей будет по пути

Проигрыш:

  Em                     Am                E7 

E|--------------------------5-4-3--2--1--0----|

H|---5-4-3--2--1--0-------------------------3-|

G|-------------------0------------------------|

D|--------------------------------------------|

A|------------------------0-------------------|

E|-0------------------------------------------|


Глоток на дорогу, затяжка в кулак,
Папа не инспектор, а кирпич не знак,
Я тебе друг, если ты себе враг

Пока ещё молод и не глуп,
С судьбой, как с женщиной, то нежен будь, то груб -
Они принимают эту игру

Жить по канонам - что спать с гандоном,
Башка без идей - как дом без детей
Прости мою пошлость, прости этот пафос,
Просто к слову так пришлось

Припев - 2 раза.

Окончание:

  Em                     Em                H7    H7     Em  

E|-----------------------------------------------3-2-3-2-0-|

H|---5-4-3--2--1--0---------5-4-3--2--1--0-----------------|

G|-------------------0-------------------------------------|

D|------------------------------------------4--------------|

A|---------------------------------------------------------|

E|-0----------------------0--------------------------------|

Бой на гитаре (примерный вариант):

 
 
Новые добавления
Статистика

Онлайн всего: 74
Гостей: 74
Пользователей: 0

Яндекс.Метрика

Вход на сайт