Accordium Delectus Подборка аккордов
 

ВИА Добры молодцы: Первый дождь (фильм Розыгрыш)


Смотреть в тональности Em


   D#m                             B/D    
Когда роняет капли первый дождь,
  C#m6                           G#/C  
И гром из тучи катится на крышу,
         H6                                    F#/B    
Бьёт город мой предпраздничная дрожь,
       G#m                        Bsus4   B    
И я её душой и кожей слышу

       D#m                              B/D  
Дожди в начале лета, как стихи,
    C#m6         D#7           H6     
Нас возвышают до своих истоков,
D#m/B                         E 
И кажется, раз улицы тихи,
         D#m/B              B           D#m    
Всё в наших душах мирно и высоко


И дрогнет гладь оконного стекла,
Острее станут запахи бульваров,
И заглядятся здания в зеркала
Глубоких, словно реки, тротуаров

В смешении воды и высоты,
Идёшь спокойно, медленно, не кроясь
И кажется, раз улицы чисты,
Чисты у всех, у нас, душа и совесть

Проигрыш:

     D#m                 B/D  C#m6               G#/C      

E|-6--6--6--6-6-6--6--6-6-6----6--6--6-6-6--6-------------|

H|---------------------------------------------9-8-9------|

G|----------------------------------------------------8---|

D|--------------------------------------------------------|

A|--------------------------------------------------------|

E|--------------------------------------------------------|

 

      H6                 F#/B    G#m                Bsus4  B

E|--------------------6------------------------------6----|

H|----9--9--9-9-9--9----6-7----7-6--6--6-6-6--6--7-9----6-|

G|-8------------------------------------------------------|

D|--------------------------------------------------------|

A|--------------------------------------------------------|

E|--------------------------------------------------------|


   D#m                              B/D   
То каплями, то струями бьёт дождь,
  C#m6           D#7               H6   
То точкой, то тире стучится в раму,
D#m/B                                 E     
И кажется, что всё, чего ты ждёшь, 
     D#m/B        B          D#m    
О встрече посылает телеграмму
 


 
Последние комментарии

"класс"
 

"Эту песню написал Анатолий Кузнецов в июне 1975г, слова здесь немного отличаются от оригинала, а так звучит даже очень неплохо,молодец!"
 

"Это Мулерман! Светлая память!"
 

"Класс"
 

"Эту песню любит мой папа"
Статистика

Онлайн всего: 28
Гостей: 27
Пользователей: 1
Justas
Вход на сайт