Accordium Delectus Подборка аккордов
 

ВИА Добры молодцы: Первый дождь (фильм Розыгрыш)


В оригинале на пол-тона ниже (D#m)


    Em                             H7/D# 
Когда роняет капли первый дождь,
   Dm6                             A/C#  
И гром из тучи катится на крышу,
         C6                                     G/H    
Бьёт город мой предпраздничная дрожь,
           Am                        H7sus4   H7    
И я её душой и кожей слышу

        Em                              H7/D#
Дожди в начале лета, как стихи,
     Dm6            E7            C6      
Нас возвышают до своих истоков,
 Em/H                          F 
И кажется, раз улицы тихи,
          Em/H              H7           Em     
Всё в наших душах мирно и высоко


И дрогнет гладь оконного стекла,
Острее станут запахи бульваров,
И заглядятся здания в зеркала
Глубоких, словно реки, тротуаров

В смешении воды и высоты,
Идёшь спокойно, медленно, не кроясь
И кажется, раз улицы чисты,
Чисты у всех, у нас, душа и совесть

Проигрыш:

     Em                 H7/D# Dm6                  A/C#    

E|-7--7--7--7-7-7--7--7-7-7----7--7--7-7-7--7-------------|

H|---------------------------------------------10-9-10----|

G|-----------------------------------------------------9--|

D|--------------------------------------------------------|

A|--------------------------------------------------------|

E|--------------------------------------------------------|

 

      C6                       G/H    Am                 H7sus4 H7

E|--------------------------7-------------------------------7----|

H|----10--10--10-10-10--10----7-8----8-7--7--7-7-7--7--8-10----7-|

G|-9-------------------------------------------------------------|

D|---------------------------------------------------------------|

A|---------------------------------------------------------------|

E|---------------------------------------------------------------|


   Em                              H7/D# 
То каплями, то струями бьёт дождь,
   Dm6             E7                C6    
То точкой, то тире стучится в раму,
 Em/H                                  F     
И кажется, что всё, чего ты ждёшь, 
      Em/H         H7          Em     
О встрече посылает телеграмму
 


 
Последние комментарии

"Песня и исполнение - супер, берет за душу до слез. Играю и пою ее каждый день. Спасибо автору и исполнителю за столь душевную музыку"
 

"Кто автор музыки и слов???"
 

"Понравилась песня."
 

"Здорово. По-моему. лучшее исполнение"
 

"Клаааас!"
Статистика

Онлайн всего: 61
Гостей: 60
Пользователей: 1
89199658947
Вход на сайт