Accordium Delectus Подборка аккордов
 
Главная > П > Певцов Дмитрий > Лунная дорога

Дмитрий Певцов: Лунная дорога


Вступление (примерный вариант перебора) - 2 раза: 


          Em                                 Am                                     D                                Gsus2                                     

E|----------0-------------------0--------------------2-------------------3-------|

H|------0-------0-----------1-------1------------3-------3-----------3-------3---|

G|----0---0---0---0-------2---2---2---2--------2---2---2---2-------0---0---0---0-|

D|------------------------------------------0------------------------------------|

A|---------------------0---------------------------------------------------------|

E|-0------------------------------------------------------------3----------------|

                Am                                     H7                                    Em                                                                      

E|----------0----------------------2-------------------0--------------------|

H|------1-------1--------------0-------0-----------0-------0----------------|

G|----2---2---2---2----------2---2---2---2-------0---0---0---0--------------|

D|--------------------------------------------------------------------------|

A|-0---------------------2--------------------------------------------------|

E|--------------------------------------------0-----------------------------|




                   Em          Am
Унесла покой ночь,
                          D         Gsus2
Я уже с тобой, но
                          Am       H7   
Лишь в твоём дыханьи,
                   Em       
Зыбким очертаньем

Золото волос лью,
С губ твоих печаль пью
Подожди немного,
Лунная дорога

Припев:

 Em              C  Gsus2
А на небе, до утра,
                           D      Gsus2
Звёзды ждут меня - пора
       Em                C     Gsus2    
Сколько тактов у разлук,
                         D    
Столько глаз и рук


Музыка плыла к нам
По небесным волнам
Слёзы, словно свечи,
Обжигали плечи

Я тебя укрою
Звёздною росою
Подожди немного,
Лунная дорога

Проигрыш = вступление.

Припев - 2 раза.

               Em           
Унесла покой ночь...
                      Am    H7
Подожди немного,
                Em      
Лунная дорога...

 


 
Последние комментарии

"Чудесная песня, Прослушала много раз. Спасибо Авторам и певцам."
 

"ВИА Поющие гитары Печаль -беда = Сарафанная молва ! Кто же первый?"
 

"отлично ,благодарю"
 

"А бой какой?"
 

"Прррррекрасно!!!"
Статистика

Онлайн всего: 107
Гостей: 107
Пользователей: 0
Вход на сайт