Accordium Delectus Подборка аккордов
 
Главная > Ф > Фролова Елена > Как пережить и как оплакать мне

Елена Фролова: Как пережить и как оплакать мне



Вступление (играется вся песня):

  Gm6                           Dmadd9                              

E|---------0---------------0---------------0---------------0-------|

H|-3---3-------3---3---3-------3---3---3-------3---3---3-------3---|

G|---3---3---3---3---3---3---3---3---2---2---2---2---2---2---2---2-|

D|-----------------------------------------------------------------|

A|-----------------------------------------------------------------|

E|-3---------------3---------------1---------------1---------------|

   E7           Em7-5           A7sus4            A7                

E|---------0---------------0---------------0---------------0-------|

H|-3---3-------3---3---3-------3---3---3-------3---2---2-------2---|

G|---1---1---1---1---0---0---0---0---0---0---0---0---0---0---0---0-|

D|-----------------------------------------------------------------|

A|-----------------1---------------0---------------0---------------|

E|-0---------------------------------------------------------------|


            Gm6                                    Dmadd9         
Как пережить и как оплакать мне
      E7                  Em7-5      A7sus4 A7
Бесценных дней бесценную поте-е-рю?
        Gm6                                    Dmadd9
Но всходит ветр в воздушной вышине -
      E7          Em7-5       A7sus4  A7
Я знаю всё, я промолчу, я ве-е-рю

Душа в душе, в душе весной весна,
Весной весна, и чем весну измерю?
Чем отзовусь, когда придёт она?
Я промолчу, не отзовусь - не верю

Не оскорбляй моих последних лет
Придя в веках, обиду я измерю
Я промолчу, я не скажу, нет-нет!
Суров мой суд... Как мне сказать: "Не верю"?

Текут века в воздушной вышине,
Весы твоих судеб вознёс и верю
Как пережить и как оплакать мне
Бесценных дней бесценную потерю?

Проигрыш=Вступление (2 раза).

Как пережить и как оплакать мне
Бесценных дней бесценную потерю?

Окончание=Вступление...

 
Последние комментарии

"хорошая песня и разбор хорош"
 

"второй аккорд в припеве АШ, не в тему"
 

"молодец"
 

"а где найти ноты к этой песне"
 

"Исполнение просто супер,нет слов,с душой тревогой в душе!!!Можно слушать и слушать???"
Статистика

Онлайн всего: 66
Гостей: 66
Пользователей: 0
Вход на сайт