Accordium Delectus Подборка аккордов
 
Главная > Ф > Фролова Елена > Песни счастливой зимы

Елена Фролова: Песни счастливой зимы



Вступление:

 Cadd9     C     Cmaj7     C       E7      C/E      E                  

E|----------------------------------------------------------0--------|

H|-3-------1-------0-------1--------3-------1-------0---------0------|

G|-0---0-------0-------0-------0--------1-------0-------1-------1----|

D|-2-2---2---2---2---2---2---2---0----2---2---2---2---2---2-------0--|

A|-3-----------------------------------------------------------------|

E|----------------------------------0-----------------------0--------|

 

 Asus4    Am     Asus2    Am      Ddim7              E                

E|-----------------------------0----------1--------------------------|

H|-3-------1-------0-------1-----1------0-----0------------0-------0-|

G|-----2-------2-------2--------------1---------1--------1-----1-----|

D|---2---2---2---2---2---2---2------0-------------0----2---------0---|

A|-0---------------------------0-------------------------------------|

E|---------------------------------------------------0---------------|


     Cadd9           C        Cmaj7  C
Песни счастливой зимы
     E7         C/E        E 
На память себе возьми,
        Asus4        Am         Asus2  Am
Чтоб вспоминать на ходу
Ddim7               E 
Звуков их глухоту

Местность, куда, как мышь,
Быстрый свой бег стремишь?
Как бы там не звалась,
В рифмах их улеглась

Am                          
Так, что вытянув рот,
Ddim7                            
Так ты смотришь вперёд
  E                           
Как глядит в потолок,
 Am                     
Глаз пыля, ангелок

A                        A7 
А снаружи - в провал,
D#dim7             F#dim7
Снег белей покрывал,
D#dim7              F#dim7
Тех, что нас занесли,
 G                       
Но зимы не спасли

--------------------------------------------------------------------------

Значит, это весна!
То-то крови тесна
Вена, только что взрежь,
Море ринется в брешь

Так что виден насквозь
Вход в бессмертие врозь,
вызывающий грусть,
Но вдвойне: наизусть

Песни счастливой зимы
На память себе возьми
То, что спрятано в них,
Не отыщешь в иных

Здесь, от снега чисты,
Воздух секут кусты,
Где дрожит средь ветвей
Радость жизни моей

--------------------------------------------------------------------------

  Cadd9           C        Cmaj7  C
Песни счастливой зимы...
 E7            C/E         E  
 Песни счастливой зимы...
                   Asus4         Am       Asus2  Am  Ddim7  E
Песни счастливой зимы...

Песни счастливой зимы...
Песни счастливой зимы...
Песни счастливой зимы...

  Cadd9           C        Cmaj7 C
Песни счастливой зимы...

 
Последние комментарии

"можно на 1 струне"
 

"Реклама одолела"
 

"сильная песня"
 

"👍"
 

"Сила"
Вход на сайт