Accordium Delectus Подборка аккордов
 
Главная > Т > Тишкова Елена > Птицы белые

Елена Тишкова: Птицы белые



Смотреть в тональности Am

Вступление:

E|--------------0-----------------0----------------------------------|
H|-------3-----------------3-----------------3--------3--------3---2-|
G|-----4------4----------0------0----------0--------0--------0-------|
D|---4------4----------4------4----------4--------4--------2---------|
A|-2-----------------0-----------------------------------0-----------|
         E|-------------------------------------3--------0--------------------| - 2 раза

E|--------------0-----------------0----------------------------------|
H|-------3-----------------3-----------------3--------5--------2-----|
G|-----4------4----------0------0----------0--------4--------4-----3-|
D|---4------4----------4------4----------0--------5--------2---------|
A|-2-----------------0--------------------------4--------------------|
E|-------------------------------------0-----------------2-----------|

       Hm                       F#/B
У кудрявой берёзы в России
              F#                        Hm  
Есть сестра, что живёт в Украине
        H       H7/A       Em  
У реки, берега пробегая,
                G                          F#
Есть хоть капля от каждого края

             Hm                         Em6   
Нет страны, где не пели бы птицы,
           A7                          D    
Где от солнца счастливые лица,
           G                     Em 
   Где рожают и любят детей...
            C#7                              F#
Должен мир быть добрей и светлей!

Припев:

          Hm                   C#7    
Птицы мирные, голуби белые,
         F#                  Hm     
Вы летите, чистые, смелые
                    H7/A                           Em  Em7
Видно, время напомнить пришло,
                      A7             D  H7/D#
Что война, что война,
           Em          Em6          F# 
Что война - это страшное зло!

Переход на 1 полутон (на 1 лад) выше (Cm)

   Cm                              G/H   
Отчего же так странно бывает:
               G                       Cm  
Кто-то вдруг обо всём забывает
           C           C7       Fm  
И птенца заслоняя крылом,
            G#                          G  
Птица криком спасает свой дом

       Cm                       Fm   
И ветра разгоняют страницы,
             B7                        D#     
Где, клянусь, что не повторится,
         G#                      Fm 
И эти лица героев тех дней
      D7                     G   
Умоляют: будьте мудрей!

Припев:

          Cm                     D7     
Птицы мирные, голуби белые,
          G                  Cm    
Вы летите, чистые, смелые
             C7                             Fm
Видно, время напомнить пришло,
            B7             D#
Что война, что война,
           Fm           Fm6         G 
Что война - это страшное зло!

Переход на 1 полутон (на 1 лад) выше (C#m)

            C#m                       F#m6 
Нет страны, где не пели бы птицы,
           H7                          E    
Где от солнца счастливые лица,
                      A                    F#m  F#m7
   Где рожают и любят детей...
             D#             D#/C#       G# 
Должен мир быть добрей и мудрей,
C#sus2            C#      
Должен мир быть!

Бой на гитаре (примерный вариант):


 
Последние комментарии

"хорошая песня и разбор хорош"
 

"второй аккорд в припеве АШ, не в тему"
 

"молодец"
 

"а где найти ноты к этой песне"
 

"Исполнение просто супер,нет слов,с душой тревогой в душе!!!Можно слушать и слушать???"
Статистика

Онлайн всего: 23
Гостей: 23
Пользователей: 0
Вход на сайт