Accordium Delectus Подборка аккордов
 
Главная > Дуэты > Беседина, Тараненко: Чужие, Вы и я

Галина Беседина и Сергей Тараненко: Чужие, Вы и я



В оригинале на полтора и на два с половиной тона выше (Gm и Am).

Можно проиграть этими же аккордами, поставив каподастр на 3-ем или на 5-ом ладу

Вступление (примерный вариант перебора):

  Em                               C                                 
E|---------0---------------0---------------0---------------0-------|
H|-----0-------0-------0-------0-------1-------1-------1-------1---|
G|---0---0---0---0---0---0---0---0---0---0---0---0---0---0---0---0-|
D|-----------------------------------------------------------------|
A|---------------------------------3---------------3---------------|
E|-0---------------0-----------------------------------------------|

  Am                              Em                                
E|---------0---------------0---------------0---------------0-------|
H|-----1-------1-------1-------1-------0-------0-------0-------0---|
G|---2---2---2---2---2---2---2---2---0---0---0---0---0---0---0---0-|
D|-----------------------------------------------------------------|
A|-0---------------0-----------------------------------------------|
E|---------------------------------0---------------0---------------|

    C                              Am                       H7        
E|---------0---------------0---------------0-------------0-------2-|
H|-----1-------1-------1-------1-------1-------1-------1-------0---|
G|---0---0---0---0---0---0---0---0---2---2---2---2---2-------2-----|
D|-----------------------------------------------------------------|
A|-3---------------3---------------0---------------0-------2-------|
E|-----------------------------------------------------------------|

Припев:

Em                                   Am 
Чужие Вы и я, ничто не повторится,
           D                                         G    H7
Чужие, Вы и я, простимся у дверей
           Em           E7                       Am        C7 
Чужие Вы и я, но может так случиться,
                 Em/H     H7          Em
Чужая Ваша жизнь окажется моей

--------------------------------------------------------------

Am                      Em                    
Мы в городе чужом случайно повстречались,
Am                         Em                 
Дождём шумела ночь за сумрачным окном
     Dm             E7   Dm                E7       
От ночи и дождя укрыться мы пытались,
    Am                    C7     F#                 H7  E7 
И длился Ваш рассказ о чём-то мне чужо-о-ом

  Am             Em/H Am             Em/H
Вы были влюблены, она Вас не любила -
        Am                Em/H   Am            Em/H
Сюжет банально прост, а истина стара
A7                  D      A7               D  
Она ушла с другим, она о Вас забыла,
     C               F#                     H7
И не было тепла у Вашего костра

Припев - 2 раза.

 C          Em/H     H7          Em
Чужая Ваша жизнь окажется моей...

Окончание:

  Em                               C                                 
E|---------0---------------0---------------0---------------0-------|
H|-----0-------0-------0-------0-------1-------1-------1-------1---|
G|---0---0---0---0---0---0---0---0---0---0---0---0---0---0---0---0-|
D|-----------------------------------------------------------------|
A|---------------------------------3---------------3---------------|
E|-0---------------0-----------------------------------------------|

  Am                                 Em                             
E|---------0---------------0----------0----------------------------|
H|-----1-------1-------1-------1------0----------------------------|
G|---2---2---2---2---2---2---2---2----0----------------------------|
D|------------------------------------2----------------------------|
A|-0---------------0------------------2----------------------------|
E|------------------------------------0----------------------------|
 


 
Последние комментарии

"очень ноавится песня."
 

"можно на 1 струне"
 

"Реклама одолела"
 

"сильная песня"
 

"👍"
Вход на сайт