Accordium Delectus Подборка аккордов
 
Главная > Дуэты > Беседина, Тараненко: Чужие, Вы и я

Галина Беседина и Сергей Тараненко: Чужие, Вы и я



Смотреть в тональности Em

Вступление (примерный вариант перебора):

  Gm                              D#                                
E|---------3---------------3---------------3---------------3-------|
H|-----3-------3-------3-------3-------4-------4-------4-------4---|
G|---3---3---3---3---3---3---3---3---3---3---3---3---3---3---3---3-|
D|-----------------------------------------------------------------|
A|---------------------------------6---------------6---------------|
E|-3---------------3-----------------------------------------------|

  Cm                              Gm                                
E|---------3---------------3---------------3---------------3-------|
H|-----4-------4-------4-------4-------3-------3-------3-------3---|
G|---5---5---5---5---5---5---5---5---3---3---3---3---3---3---3---3-|
D|-----------------------------------------------------------------|
A|-3---------------3-----------------------------------------------|
E|---------------------------------3---------------3---------------|

   D#                             Cm                       D7        
E|---------3---------------3---------------3-------------3-------5-|
H|-----4-------4-------4-------4-------4-------4-------4-------7---|
G|---3---3---3---3---3---3---3---3---5---5---5---5---5-------5-----|
D|-----------------------------------------------------------------|
A|-6---------------6---------------3---------------3-------5-------|
E|-----------------------------------------------------------------|

Припев:

Gm                                   Cm 
Чужие Вы и я, ничто не повторится,
           F                                         B    D7
Чужие, Вы и я, простимся у дверей
           Gm           G7                       Cm        D#7
Чужие Вы и я, но может так случиться,
                 Gm/D     D7          Gm
Чужая Ваша жизнь окажется моей

--------------------------------------------------------------

Cm                      Gm                    
Мы в городе чужом случайно повстречались,
Cm                         Gm                 
Дождём шумела ночь за сумрачным окном
     Fm             G7   Fm                G7       
От ночи и дождя укрыться мы пытались,
    Cm                   D#7    A                   D7  G7 
И длился Ваш рассказ о чём-то мне чужо-о-ом

  Cm             Gm/D Cm             Gm/D
Вы были влюблены, она Вас не любила -
        Cm                Gm/D   Cm            Gm/D
Сюжет банально прост, а истина стара
C7                  F      C7               F  
Она ушла с другим, она о Вас забыла,
    D#              A                       D7
И не было тепла у Вашего костра

Припев.

Я слушала рассказ, а ночь в окно смотрела,
И в мыслях о другой Вы были далеко,
И ангелы любви не выпустили стрелы,
            Cm                   D#7        A              D7  E7
Промчавшись надо мной бесшумно и легко

Переход на один тон выше (Am)

Припев:

Am                                   Dm
Чужие Вы и я, ничто не повторится,
           G                                         C    E7
Чужие, Вы и я, простимся у дверей
         Am            A7                       Dm        F7
Чужие Вы и я, но может так случиться,
                       Am/E      E7          Am  D7
Чужая Ваша жизнь окажется моей

Переход обратно в Gm

Припев.

 D#        Gm/D     D7          Gm
Чужая Ваша жизнь окажется моей...

Окончание:

  Gm                              D#                               
E|---------3---------------3---------------3---------------3-------|
H|-----3-------3-------3-------3-------4-------4-------4-------4---|
G|---3---3---3---3---3---3---3---3---3---3---3---3---3---3---3---3-|
D|-----------------------------------------------------------------|
A|---------------------------------6---------------6---------------|
E|-3---------------3-----------------------------------------------|

  Cm                                 Gm                             
E|---------3---------------3----------3----------------------------|
H|-----4-------4-------4-------4------3----------------------------|
G|---5---5---5---5---5---5---5---5----3----------------------------|
D|------------------------------------5----------------------------|
A|-3---------------3------------------5----------------------------|
E|------------------------------------3----------------------------|
 


 
Последние комментарии

"Вместо с/ н луше Сm"
 

"я в восторге! Есть вариант другого исполнения. хочу пробовать этот вариант."
 

"Это бывший вратарь футбольной команды Динамо (Киев)!У меня есть его автограф! А кто написал эту песню, увы, неизвестно!?"
 

"Большое спасибо!"
 

"Спасибо!"
Статистика

Онлайн всего: 22
Гостей: 22
Пользователей: 0
Вход на сайт