Accordium Delectus Подборка аккордов
 
Главная > Д > Демарин Игорь > Листья Летнего сада

Игорь Демарин: Листья Летнего сада


Вступление:


E|-1------1-0---1-------1------0-------0---------------------------|

H|-3--3---3-3-3-3-3-----3-3----0-------2---------------------------|

G|----2-------2---2-------2----1-------0---------------------------|

D|-----------------------------2-------2---------------------------|

A|-------------------------------------0---------------------------|

E|-----------------------------------------------------------------|


E|-------1--------------1--------------------1---------------1-----|

H|-----3---3----------3---3----------------3---3-----------3---3---|

G|---2-------2------2-------2------------2-------2-------2-------2-|

D|-0-----------------------------------0---------------------------|

A|---------------0-------------------------------------0-----------|

E|-----------------------------------------------------------------|




                      Dm                     Dm/F              Gm/F                 Gm9/F  Gm/F 
Стрелка секундная мчится, шалея, по циферблату,
                A7                                          Dm                Dsus2  Dm 
Не по годам мы с тобою стареем, а по утратам
                      Dm                      Dm/F                 Gm/F                   Gm9/F  Gm/F   
Наши сомненья рассудятся жизнью, да непредвзято,
                  A7                                             Dm                  Dsus2  Dm 
Я тебя старше на тысячи листьев Летнего сада!


                     B                                             Dm                       Dsus2  Dm   
Разницу лет нашу ты уменьшаешь, ангел небесный,
                   B                                                Dm                        Dsus2  Dm 
Рядом по краю идёшь, и не знаешь - это край бездны!
                    Esus4                       E                      Am                      Asus2  Am    
Думаешь, там на старинных аллеях - статуй прохлада? 
 H7               E                A7sus4           A7  
Это утраты наши белеют в сумерках сада!

Припев:

Dm                        
Листья Летнего сада,
Ddim7                       
Листья Летнего сада,
  Gm                   A7  Dsus4    D
Листья Летнего сада, сада...

Gm                               
Там, за чугунной оградой,
Dm                     Dm/F 
Белых статуй прохлада
Ddim7                A7    Dm      
Листья Летнего сада, сада...


В огненном горе тех листьев опавших, переселённых -
Я потерял тебя там, как единственный лист мой зелёный!
И не спастись от костра, от того, от осеннего гула,
Просто я старше тебя на мечту, что меня обманула

Разницу лет нашу ты уменьшаешь, ангел небесный,
Рядом по краю идёшь, и не знаешь - это край бездны!
Думаешь, там на старинных аллеях статуй прохлада?
Это утраты наши белеют в сумерках сада!

Припев.

Gm                                
Там, за чугунной оградой,
Dm                    Dm/F 
Белых статуй прохлада
  Ddim7                 A7    Dm      H7
Листья Летнего сада, сада...

Переход на 1 тон (на 2 лада) выше (Em)

Припев:

Em                         
Листья Летнего сада,
Edim7                        
Листья Летнего сада,
   Am                   H7   Esus4    E
Листья Летнего сада, сада...

Am                               
Там, за чугунной оградой,
Em                     Em/G
Белых статуй прохлада
 Edim7                H7     Em     E
Листья Летнего сада, сада...

Там, за чугунной оградой,
Белых статуй прохлада
Edim7                H7     Em      
Листья Летнего сада, сада...
 


 
Последние комментарии

"Благодарю за песню!Мелодичная и красивая,спели великолепно! Цепляет струнки души!"
 

"А я слышал вариант: От вселенской ПОГОНИ не уйти ..."
 

"Классно, а кто текст написал?)"
 

"Нормально. Мы ее в армии лабали ДМБ-82"
 

"Класс!"
Статистика

Онлайн всего: 91
Гостей: 91
Пользователей: 0
Вход на сайт