Accordium Delectus Подборка аккордов
 
Главная > С > Слуцкий Игорь > За Победу!

Игорь Слуцкий: За Победу!




В оригинале на полтора и на два тона выше (Cm и C#m).

Можно проиграть этими же аккордами, поставив каподастр на 3-ем или на 4-ом ладу


Вступление: 

         F         C     Dm            Am   
E|-8-7-------------------------------------------|
H|-----10-8-10----8-6-8-6-8-----6-5-6------5---5-|
G|---------------------------------------7---7---|
D|-----------------------------------------------|
A|-----------------------------------------------|
E|-----------------------------------------------|

   Dm         Am     Dm     E     Am               F      
E|----------------------------------------------3-5----|
H|-----------------------3------------------3-5--------|
G|-7-5-7----4-5-4-5----4---5----4-2-1-2-4-5------------|
D|-----------------------------------------------------|
A|-----------------------------------------------------|
E|-----------------------------------------------------|

C     Dm           Am       Dm         Am   
E|-3-1-3-1-3---------------------------------------------|
H|--------------6-5-6----3-5-3-5----3-1-3----------------|
G|-------------------------------------------4-5-4-5-----|
D|-------------------------------------------------------|
A|-------------------------------------------------------|
E|-------------------------------------------------------|

   Dm     E    Am   
E|-------------5-|
H|----6--5--3----|
G|-7-------------|
D|---------------|
A|---------------|
E|---------------|

        Am             E      Am    
Наша жизнь - не белый лист, 
          F          G       C  
Кто танкист, а кто связист,
          F                    A7                 D      
Кто пилот, а кто Морфлот - все сражались

          Dm           Hm7-5
Наши сверстники уже -
              Am                     
Каждый в личном блиндаже,
        H7                                 E       
Ну а мы с весной в душе задержались


Хочешь - плачь, а хочешь - пой, 
Нам всё реже снится бой,
И всё медленнее строй ветеранов

Фронтовые сотню грамм 
Внуки с правнуками нам,
В майский вечер, разольют по стаканам

Припев:

        F           C               Dm                  Am
За девятое число выпьем, всем смертям назло,
              H7                                 E    
Волчьей стаей пусть года идут по следу
       F                      C          Dm Am
И за мир в не мирном мире, и за Т-34, 
Dm           E               Am         
За "Катюшу", за Победу!

Проигрыш: F  C  Dm  Am  Dm  Am   Dm E Am - 2 раза

Прижимает сердце груз 
За разорванный союз...
Где тут минус, где тут плюс в самом деле?

Молодые, как в кино, 
Перестроились давно,
А кому не всё-равно - не сумели


Кто сражался, тот поймёт:
Не за льготы и почёт,
За Отчизну и народ били гада!

Славу точно заслужил
Тот, кто голову сложил,
И сегодня нам за них выпить надо!

Припев.

Проигрыш: Gm  A7  Dm  Dm  H7  H7  Esus4 E

Припев - 2 раза.

Окончание: F  C  Dm  Am  Dm  Am   Dm E Am - 2 раза

Примерный вариант боя:


 
Последние комментарии

"это Варданян Левон и ВЕСЕЛЫЕ РЕБЯТА ( НИ ПРИ ЧЕМ ) да была эта песня в дописке к магнитофонной ленте веселых ребят , просьба к админу положить эту песню в папку Л ВАРДАНЯНА"
 

"+++"
 

"Классная песня"
 

"Прекрасно"
 

"Одни и те же ошибки в тексте. Один написал как ему услышалось, остальные тупо копируют. "....Отчаянно ждем, надеясь на божий глаз..." При чем тут глаЗ? Смысл этой строчки в том, что они надеются, что Бог им поможет, подскажет, т.е. они услышат голос свыше - голос Господа, Божий глас. "...Стало темно, нас как в кино в Висконси..." Что значит "в Висконси"? Уверен, что тот, кто написал это, не понимает о чем речь. Был такой итальянский кинорежиссер - Лукино Висконти. Именно с сюжетом одного из его фильмов Александр Яковлевич сравнивает встречу . И последнее. "...кто-то падает сбитый в лёт..." Правильно писать слитно - влёт."
Статистика

Онлайн всего: 106
Гостей: 106
Пользователей: 0
Вход на сайт