Accordium Delectus Подборка аккордов
 
Главная > И > Инфинити > Где ты

Инфинити: Где ты



Вступление (примерный вариант перебора):

Gm                                 

E|------------------------------------|

H|------------------------------------|

G|-----0--------0--------0--------0-3-|

D|---0---0----0---0----0---0----0-----|

A|------------------------------------|

E|-3--------3--------3--------3-------|

 

  Gm                D#                Cm                D                   

E|------------------------------------------------------------------------|

H|------------------------------------------------------------------------|

G|-----0--------0--------8--------8--------5--------5--------7--------7---|

D|---0---0----0---0----8---8----8---8----5---5----5---5----7---7----7---7-|

A|-------------------6--------6--------3--------3--------5--------5-------|

         E|-3--------3-------------------------------------------------------------| - 3 раза


Припев:

   Gm     D#               Cm   D
Где ты?   Я бегу за тобою,
                               Gm   D#  
Разрываюсь с мечтою,
                       Cm              D
Растворяюсь в ночи... Не молчи!

Вместе не встречать нам рассветы,
В два конца, в две планеты, 
Вдаль уносишься ты, ты...


Gm                                                                          
Ты, как обычно, говоришь мне: "До свидания",
Gm                                                                          
Бескрайний мрак, нас разделяют расстояния
D#                                                       Cm  D    
В глазах твоих игра, а завтра, как вчера...

Gm                                           
Бежать, где свет огней...
Gm                                           
Мечтаю раствориться
D#                                          
Я просто промолчу -
  Cm     D                
Забыться...

Припев.

Gm                                                                
Мои желания не дают мне удержаться
Gm                                                                
За встречей, взгляда мне искать, скитаться
D#                                                   Cm     D   
Так будет не всегда, закончится игра...

Припев.

Окончание:

  Gm                D#                Cm                D                  

E|------------------------------------------------------------------------|

H|------------------------------------------------------------------------|

G|-----0--------0--------8--------8--------5--------5--------7--------7---|

D|---0---0----0---0----8---8----8---8----5---5----5---5----7---7----7---7-|

A|-------------------6--------6--------3--------3--------5--------5-------|

         E|-3--------3-------------------------------------------------------------| - 4 раза

 
Последние комментарии

""Ласковый май" вернулся"
 

"Безумно красивая композиция"
 

"Текст не соответствует заявленному! Примите меры."
 

"Сравните с исполнением Владимир Трошина"
 

"Класс. Настоящая песня со смыслом. А то превратили женщин элегантно года возраста а старух. А мы живые и очень даже."
Вход на сайт