Accordium Delectus Подборка аккордов Главная Отзывы Заявка на песню Аккорды Табы Новости Видео Статьи FAQ О сайте
А   Б   В   Г   Д   Е   Ё   Ж   З   И   Й   К   Л   М   Н   О   П   Р   С   Т   У   Ф   Х   Ц   Ч   Ш   Щ   Э   Ю   Я
 
A   B   C   D   E   F   G   H   I   J   K   L   M   N   O   P   Q   R   S   T   U   V   W   Y   Z                       0...9
"
Разделы сайта
                   
Настройка гитары
1-я струна E  

2-я струна H  

3-я струна G  

4-я струна D  

5-я струна A  

6-я струна E  
Главная > Ё > Ёлка > Прованс

Ёлка: Прованс



В оригинале на пол-тона ниже (D#m)

Вступление:

   Em                      H7                       C                     Am                 H7                   
E|----------------------------------------------------------------------|
H|------0--0------------------------------------------------------------|
G|-----------0---------4--4-----------5--5-----------2--2--------4--4---|
D|-2--2---------------------4--------------5--------------2-----------4-|
A|----------------2--2-----------3--3-----------0--0--------2--2--------|
         E|----------------------------------------------------------------------| - 2 раза

  Em               H7            
Уютное кафе
C                        Am         H7   Em     
На улицах сплетённой мебелью,
                 H7
Где красное вино
C                            Am          H7     Em   
Из местных погребов больших Шато

Ты можешь говорить,
Что это только глупые мечты,
Но в планах у меня
C                            Am      H7         
Всё, видимо, немного кружит

Припев:

        Em                                         H7                      
Ведь завтра в семь двадцать две я буду в Борисполе
     C                        Am             H7             
Сидеть в самолёте и думать о пилоте, чтобы
 Em                                H7                        
Он хорошо взлетел и крайне удачно сел
   C                               Am               H7              Em  
Где-нибудь в Париже, а там ещё немного - и Прованс

Проигрыш=Вступление

Бордовый горизонт,
Бордовое Бордо в бокале
Поверить не могу,
Что это всё уже так близко

Припев.

Проигрыш:

   Em                      H7                       C                     Am                 H7                   
E|----------------------------------------------------------------------|
H|------0--0------------------------------------------------------------|
G|-----------0---------4--4-----------5--5-----------2--2--------4--4---|
D|-2--2---------------------4--------------5--------------2-----------4-|
A|----------------2--2-----------3--3-----------0--0--------2--2--------|
         E|----------------------------------------------------------------------| - 4 раза

Припев.

Бой на гитаре (примерный вариант):

 
Ещё песни:
 

 
 
Новые добавления
Статистика

Онлайн всего: 25
Гостей: 25
Пользователей: 0

Яндекс.Метрика

Вход на сайт