Accordium Delectus Подборка аккордов
 
Главная > H > Hensley Ken > Romance

Ken Hensley: Romance



Вступление:

|Em  Em|H7  H7|H7  H7|Em  Em|

|Am  Am|Em  Em|G  H7|Em  Em|

        Em                             H7        
In the early morning just at daybreak
        H7                                   Em          
I am faced with the steps that I must take
          Am                      Em     
And I know we can’t be together
                G        H7            Em   
No, not today, tomorrow or forever

As in a dream I turn for a moment
I feel the joy of that our love meant
It hurts to know that we can’t be together
Not today, tomorrow or forever

Припев:

                 Am                                   Em  
I can only dream now of New York and Paris
                Am                                  Em     
And of the days in my grand Moscow palace
              Am                         Em       
I won’t forget, I will always remember
                       Am                                     H7   
Though you are gone, not just for now but forever

Проигрыш:

        Em            H7                         Em             
E|----------------5-----------------5---5-5-7-------------------|
H|---5-7-8---8-8-----8-8--7----7--8-------------7-7--8----------|
G|-4------------------------------------------------------------|
D|--------------------------------------------------------------|
A|--------------------------------------------------------------|
E|--------------------------------------------------------------|
      Am           Em             G     H7   Em               C  
E|-------------5---------------------7--5-----------------------|
H|-5-7-8---7-8----7-7--8-8----5-7-8--------4--5----7~8-7-5------|
G|---------------------------------------------------------4--5-|
D|--------------------------------------------------------------|
A|--------------------------------------------------------------|
E|--------------------------------------------------------------|

C                D    Em           
We will never forget,
        C              H7   
Hallelujah, Hallelujah

We will never forget,
Hallelujah, Hallelujah


Don’t say goodbye my love, our hearts sadly yearning
Can it be true you won’t be returning
The way you said we cannot be together
No, not today, tomorrow or forever

Припев:

And I will live for you in every lonely place
In every moment’s sleep I will see your face
But as I reach out and try to touch your hand
You’re not there, oh god, how can I understand


And so farewell to a love so forsaken
A sad hello to the steps fate has taken
The cards are down, we cannot be together
But I will treasure your memory forever

                  Am                                    Em     
The book is closed now, we cannot be together
                 G                            H7       Em   
But in our hearts we’ll have each other forever
                 G                     H7       Em       
We’ll live apart with love together forever...
We’ll live apart, but love together forever,,,

Бой на гитаре (примерный вариант):

 
Последние комментарии

"СУПЕР!"
 

"Спасибо!"
 

"На яндексмузыке, в сборниках Эдуарда Артемьева, эта песня длиннее - из 3-х куплетов. Добрая память замечательному композитору."
 

"Супер, вспомнил забытую вещь"
 

"ШИКАРНАЯ ПЕСНЯ!!!!"
Вход на сайт