Accordium Delectus Подборка аккордов
 
Главная > Х > Хроноп > Португальские женщины

Хроноп: Португальские женщины



Вступление (примерный вариант):

 C#m7             H5              Asus2         H5              

E|-------7--4-0----2--0-----0------------------------0>2--0-----|

H|-----0--------0--0----0>2---2---------0>2-2-0------0------2---|

G|---6-------------4------------4-----2------------4----------4-|

D|-6---------------4----------------2------------4--------------|

A|--------------------------------------------------------------|

         E|--------------------------------------------------------------| - 2 раза


C#m7                              H5                              
Ты пишешь мне, ужасный был год,
             Asus2                          H5                C#m7  H5  Asus2  H5
В нём было много болезней и влаги
C#m7                        H5                            
На сахар цены выросли вновь,
           Asus2                     H5                      C#m7  H5  Asus2  H5
Но был запас, и ты поставила браги

Asus2                         H5                            
А я не знаю, и еду в метро,
Asus2                    H5                C#m7
Слушая двух стариков, которые спорят
Asus2                         H5                C#m7        
О красоте португальских женщин,
             Asus2                           H5               C#m7  H5  Asus2 H5
О красоте португальских женщин


Ты пишешь мне, что умер твой брат,
И ты теперь вступила в наследство:
Изба, собака, телевизор и кот,
Худая крыша, пчёлы и клевер

А я не зная, плыву по реке,
Слушая двух моряков, которые спорят
О красоте португальских женщин,
О красоте португальских женщин


Ты пишешь мне про слякоть и грязь,
Что до тебя уже не добраться,
Что ты хотела съездить в район,
Но до зимы придётся остаться

А я с прогулки вернулся домой,
Где в углу скребёт мышь, и не пишется песня
О красоте португальских женщин,
Asus2                           H5               C#m7         
О красоте португальских женщин

Окончание:

 C#m7             H5              Asus2         H5            Asus2

E|-------7--4-0----2--0-----0------------------------0>2--2>0---0-|

H|-----0--------0--0----0>2---2---------0>2-2-0------0----0-----0-|

G|---6-------------4------------4-----2------------4------------2-|

D|-6---------------4----------------2------------4--------------2-|

A|----------------------------------------------------------------|

E|----------------------------------------------------------------|

 
 
Последние комментарии

"Спасибо! отличная песня."
 

"Интересно кто так бездарно подбирает?! В оригинале слабо что ли?"
 

"Простая и в тоже время прекрасная,душевная песня.Спасибо!"
 

"Дзякуй"
 

"Показать окорды"
Статистика

Онлайн всего: 77
Гостей: 77
Пользователей: 0
Вход на сайт