Accordium Delectus Подборка аккордов
 
Главная > К > Круиз > Крутится волчок

Круиз: Крутится волчок


Вступление:

№1 - 4 раза:

  Gm    F   Gm    F   Gm    F    B    A           

D|-------------------------------3-3--2-2-| - 4-ая

A|-5-5--3-3--5-5--3-3--5-5--3-3--1-1--0-0-| - 5-ая

E|-3-3--1-1--3-3--1-1--3-3--1-1-----------| - 6-ая

---------------------------------------------------------------

№2 - 2 раза:

Соло 

E|-3----1----3--------------1-------------| - 2-ая

H|-------------------------------3----2---| - 3-я 

  Gm    F   Gm    F   Gm    F    B    A           

D|-------------------------------3-3--2-2-| - 4-ая

A|-5-5--3-3--5-5--3-3--5-5--3-3--1-1--0-0-| - 5-ая

E|-3-3--1-1--3-3--1-1--3-3--1-1-----------| - 6-ая

Соло

E|----------------------------------------| - 2-ая

H|-2----0----0----------------------------| - 3-я 

  Gm    F   Gm    F   Gm    F    B    A           

D|-------------------------------3-3--2-2-| - 4-ая

A|-5-5--3-3--5-5--3-3--5-5--3-3--1-1--0-0-| - 5-ая

E|-3-3--1-1--3-3--1-1--3-3--1-1-----------| - 6-ая

---------------------------------------------------------------

№3 - 4 раза:

   Gm    F   Gm    F   Gm    F    B    A             

D|-------------------------------3-3--2-2-| - 4-ая

A|-5-5--3-3--5-5--3-3--5-5--3-3--1-1--0-0-| - 5-ая

E|-3-3--1-1--3-3--1-1--3-3--1-1-----------| - 6-ая

 Крутится волчок                                  


Cm7                          Gm 
Люблю волчок забаву детства
Cm7                          Gm 
Его вращенья чародейство
Cm7                          Gm 
Не сомневаясь ни на йоту
Cm7                           Gm 
В движеньи думал я живет он

 Dm7            Cm7     
Всё, всё очень просто - 
Dm7                              Cm7 
Бешено, бешено, бешено кружит волчок 
Dm7                 Cm7                
Это сама природа наглядный даёт урок:

       Gm    F   Gm    F   Gm    F    B                

     D|-------------------------------3-3--2-2-| - 4-ая

     A|-5-5--3-3--5-5--3-3--5-5--3-3--1-1--0-0-| - 5-ая

     E|-3-3--1-1--3-3--1-1--3-3--1-1-----------| - 6-ая

                 Крутится волчок - ок - ок - ок - ок - ок - ок - ок                                              


  Gm    F   Gm    F   Gm    F    B                

D|-------------------------------3-3--2-2-| - 4-ая

A|-5-5--3-3--5-5--3-3--5-5--3-3--1-1--0-0-| - 5-ая

E|-3-3--1-1--3-3--1-1--3-3--1-1-----------| - 6-ая

   о-о  о-о  о-о  о-о  о    о-о…                  

Повтор №2 - 2 раза.


Проигрыш: Cm7  Cm7  Gm  Gm    Cm7  Cm7  E-F-F#-G - 2 раза


 Dm7            Cm7     
Всё, всё очень просто - 
Dm7                              Cm7 
Бешено, бешено, бешено кружит волчок 
Dm7                 Cm7               
Это сама природа наглядный даёт урок:

  Крутится волчок - ок - ок - ок - ок - ок - ок - ок,

О-о  о-о  о-о  о-о  о    о-о…  

Повтор №2 - 2 раза.

Повтор №1 - 4 раза.

  Gm    F   Gm     Gm    F   Gm    Gm    F   Gm     Gm         

D|-----------------------------------------------------| - 4-ая

A|-5-5--3-3--5-5----5-5--3-3--5-5---5-5--3-3--5-5----5-| - 5-ая

E|-3-3--1-1--3-3----3-3--1-1--3-3---3-3--1-1--3-3----3-| - 6-ая

 Крутится волчок  Крутится волчок   Крутится волчок                       

 


 
Последние комментарии

"Либерастическая хуйня"
 

"Какая светлая песня..."
 

"КЛАСС!!!!!"
 

"Кокой бой"
 

"А каким перебором здесь лучше всего разнообразить вальсовый бой?.."
Статистика

Онлайн всего: 98
Гостей: 98
Пользователей: 0
Вход на сайт