Accordium Delectus Подборка аккордов
 

Михаил Шуфутинский: Свечи



Вступление:

  Gm                      Gm7                             
E|-----6-----6-----6-----6-----6-----6-----6-----6-------|
H|---8-----8-----8-----8-----8-----8-----8-----8---------|
G|-7-----7-----7-----7-----7-----7-----7-----7-----------|
D|-5-----------------------------------------------------|
A|-------------------------8-----------------------------|
E|-------------------------------------------------------|
  D#         G#/C         Gm/D         D     D7           
E|-----6-----6-----8-----8-----6-----6-----5-----5-------|
H|---8-----8-----9-----9-----8-----8-----7-----7---------|
G|-8-----8-----8-----8-----7-----7-----7-----5-----------|
D|-------------------------0-----------0-----------------|
A|-6-----------------------------------------------------|
E|-------------8-----------------------------------------|
  Gm                     D7/F#                           
E|-----6-----6-----6-----------8-----8-----8-------------|
H|---8-----8-----8-----8-----7-----7-----7-----7---------|
G|-7-----7-----7-----7---7-7-----7-----7-----7---7-------|
D|-5-----------------5-----------------------------------|
A|-------------------------9-----------------9-----------|
E|-------------------------------------------------------|
  Gm           D#         B/F          F                  
E|-----6-----6-----6-----6-----6-----6-------------------|
H|---8-----8-----8-----8-----6-----6---------10-------10-|
G|-7-----7-----8-----8-----7-----7--------10-------10----|
D|-5-----------------------------------10-------10-------|
A|-------------6-----------8-----------8-----------------|
E|-------------------------------------------------------|
   B                      D/A          D                  
E|-----6-----6-----6-----6-----5-----5-----5-----5-------|
H|---6-----6-----6-----6-----7-----7-----7-----7---------|
G|-7-----7-----7-----7-----7-----7-----7-----7-----------|
D|-------------------------------------0-----------------|
A|-------------------------0-----------------------------|
E|-6-----------------6-----------------------------------|

Gm                                             
Осенней ночью за окном
D#                                                
Туман поссорился с дождём,
Cm7                              F7               
И беспробудный вечер,
B                                       
И беспробудный вечер

             Cm7                   F7   
О чём-то дальнем, неземном,  
             Bmaj7              D# 
О чём-то близком и родном,
Cm                          Cm6         
Сгорая, плачут свечи,
D                            G        
Сгорая, плачут свечи

О чём-то дальнем, неземном,
О чём-то близком и родном,
Сгорая, плачут свечи,
      D                 Gm
Сгорая, плачут свечи


Казалось, плакать им о чём -
Мы в общем праведно живём,
Но иногда под вечер,
Но иногда под вечер

Мы вдруг садимся за рояль,
Снимаем с клавишей вуаль
И зажигаем свечи,
И зажигаем свечи

Мы вдруг садимся за рояль,
Снимаем с клавишей вуаль
И зажигаем свечи,
Мы зажигаем свечи

Проигрыш=Вступление
     
А свечи плачут за людей,
То тише плачут, то сильней,
И позабыть волшебных дней
Они не могут, свечи

И очень важно для меня,
Что не боится воск огня,
И за тебя, и за меня,
Сгорая, плачут свечи

И очень важно для меня,
Что не боится воск огня,
И за тебя, и за меня,
               D                Gm    D7/F#
Сгорая, плачут свечи,
                                  Gm    D7/F#
Сгорая, плачут свечи,
                                   Gm    D7/F#
Сгорая, плачут свечи

Окончание=Вступление...
 


 
Последние комментарии

"Монгол шуудан круче исполнил"
 

"Перебор Пожалуйста"
 

"Класс"
 

"Да где же такой город Саха,кто мне расскажет?Про республику Арцах не слышали,не?На помощь мирным людям гор Арцаха!"
 

"Оперативно,просто молодцы!Огромное спасибо!Звучит классно!!!"
Статистика

Онлайн всего: 106
Гостей: 106
Пользователей: 0
Вход на сайт