Accordium Delectus Подборка аккордов
 
Главная > Д > Дроздов Сергей > Любовь моя, мечта моя

Сергей Дроздов (ВИА Синяя птица): Любовь моя, мечта моя



В оригинале тональность Em

Вступление (примерный вариант перебора):

Am
E|-------0-------0-------0-------0-------0-------0-------0-------0---|
H|-----1-------1-------1-------1-------1-------1-------1-------1-----|
G|---2-------2-------2-------2-------2-------2-------2-------2-------|
D|---------2---------------2---------------2---------------2---------|
A|-0---------------0---------------0---------------0---------------0-|
E|-------------------------------------------------------------------|
соло
E|-------------------------------------------------------------------|
H|---5-3-5---5---5---5-3-5---5---5---5-3-5---5---5---5-3-5---5---5---|
G|---------5---4---2-------5---4---2-------5---4---2-------5---4---2-|
D|-------------------------------------------------------------------|
A|-------------------------------------------------------------------|
E|-------------------------------------------------------------------|

Am                                   Dm               
Проходишь тихо ты по облаку,
E7                                 Am       
Руками тонкими маня
Am                                Dm6             
По голубой, зелёной роздыни
E7                                 Am     
Уходишь слепо от меня

C                                  Dm               
Перебирая звенья прошлого
G                                            C      
Уходит жизнь, листвой звеня,
C                            Dm                
А я стою как завороженный,
      C                Dm Dm6 E7                      Am
Любовь моя, мечта моя       и боль моя-а-а-а

Проигрыш:

Am
E|-------0-------0-------0-------0---|
H|-----1-------1-------1-------1-----|
G|---2-------2-------2-------2-------|
D|---------2---------------2---------|
A|-0---------------0---------------0-|
E|-----------------------------------|
соло
E|-----------------------------------|
H|---5-3-5---5---5---5-3-5---5---5---|
G|---------5---4---2-------5---4---2-|
D|-----------------------------------|
A|-----------------------------------|
E|-----------------------------------|

Казалось мне, что будет так легко
Изгиб бровей твоих забыть
А мне весна пророчит заново
Страдать, надеяться, любить

Ты подожди, я за тобой пойду,
С цветов росу стряхнув небрежно
Ты подожди, я о тебе пою,
А солнце, как прежде, нам дарит нежность

Проигрыш:

|Am  Dm|E7  Am|Am  Dm6|E7  Am|C  Dm|G  C|C  Dm|C  Dm Dm6|E7  Am|

И всё, что было нами пройдено,
В душе как колокольный звон
И всё, что было нами прожито,
Уходит снова с каждым днём

Перебирая звенья прошлого
Уходит жизнь, листвой звеня,
А я стою как завороженный,
Любовь моя, мечта моя и боль моя

Окончание:

Am
E|-------0-------0-------0-------0-------0-------0-------0-------0---|
H|-----1-------1-------1-------1-------1-------1-------1-------1-----|
G|---2-------2-------2-------2-------2-------2-------2-------2-------|
D|---------2---------------2---------------2---------------2---------|
A|-0---------------0---------------0---------------0---------------0-|
E|-------------------------------------------------------------------|
соло
E|-------------------------------------------------------------------|
H|---5-3-5---5---5---5-3-5---5---5---5-3-5---5---5---5-3-5---5---5---|
G|---------5---4---2-------5---4---2-------5---4---2-------5---4---2-|
D|-------------------------------------------------------------------|
A|-------------------------------------------------------------------|
   E|-------------------------------------------------------------------|...
 
Последние комментарии

"Во!"
 

"Посмотрела этот мульт с ребёнком, так понравилась песня - начала её искать специально ☺... Жаль что сейчас такие не пишут"
 

""Ласковый май" вернулся"
 

"Безумно красивая композиция"
 

"Текст не соответствует заявленному! Примите меры."
Вход на сайт