Accordium Delectus Подборка аккордов
 
Главная > С > Слава > Сто озёр и пять морей

Слава: Сто озёр и пять морей



В оригинале на пол- и на полтора тона выше (Fm и Gm)

Вступление:

  Em7                  Cmaj7                     

E|-----------3---------3-----------3---------3-|

H|-----3---------3-----------5---------5-------|

G|--------4---------4-----------4---------4----|

D|-2-------------------------------------------|

A|-----------------------3---------------------|

E|---------------------------------------------|

соло

             E|-------------7-5-------------------7-5-------| - 1-я струна

             H|-8--7-8----------8-7-5-8--7-8----------8-7-5-| - 2-я струна


  Am                     H7                     

E|------------0---------0-----------2----------|

H|------1---------1-----------4----------------|

G|----2----2---------2-----------2-------------|

D|---------------------------------------------|

A|-0----------------------2--------------------|

E|---------------------------------------------|

соло

             E|--------------5------------------------------| - 1-я струна

             H|-7--5-7---------8-7-5-7-4--------------------| - 2-я струна


Em7                Cmaj7      
Пусто, опустели чувства,
                    Am                        H7
Мне сегодня грустно, я опять одна
Em7                    Cmaj7   
Память - береда абсурда,
                     Am                         H7
Шепчет безрассудно: "Я найду тебя"

Припев:

        Em                  C     
Я найду на карте страсти
         D                 Hm 
Сто озёр и пять морей
       C                  Am      
Я одно возьму на счастье,
H7      
Где целуют лебедей

Я найду на карте страсти
Сто озёр и пять морей
Я хочу немного счастья,
         H7                Em 
Хочу верность лебедей


Плачет моё сердце, плачет,
Я хочу иначе - без любви нельзя!
Мало, я совсем пропала,
Счастье убежало, я ищу тебя

Припев.

Проигрыш:

|Em  Em|C  C|D  D|Hm  Hm|C  C|Am  Am|H7  H7|H7  H7| - 2 раза

Cmaj7                               
Ты не другой, а лучший,
Am                               
Мой необычный случай,
Am6                            H7  
Я всё равно найду тебя!

Припев.

Окончание:

|Em  Em|C  C|D  D|Hm  Hm|C  C|Am  Am|H7  H7|Em7|

Бой на гитаре (примерный вариант):

 
Последние комментарии

"Мне всегда слышалось " зато в руках заветный диск". И непонимание того, про кого все же песня: про расклейщиков афиш или коллекционеров разной атрибутики поп-идолов?"
 

"СУПЕР!"
 

"Спасибо!"
 

"На яндексмузыке, в сборниках Эдуарда Артемьева, эта песня длиннее - из 3-х куплетов. Добрая память замечательному композитору."
 

"Супер, вспомнил забытую вещь"
Вход на сайт