Accordium Delectus Подборка аккордов
 
Главная > Дуэты > Буланова, Любавин: Цветок

Татьяна Буланова и Сергей Любавин: Цветок


В оригинале на два и на два с половиной тона выше (C#m и Dm).

Можно проиграть этими же аккордами, поставив каподастр на 4-ом или на 5-ом ладу


Вступление (примерный вариант перебора): 


 Dm                  G                 Cmaj7                F                  


E|----------1-------------------3-------------------0-------------------1-------|

H|------3-------3-----------0-------0-----------0-------0-----------1-------1---|

G|----2---2---2---2-------0---0---0---0-------0---0---0---0-------2---2---2---2-|

D|-0----------------------------------------------------------3-----------------|

A|-----------------------------------------3------------------------------------|

E|---------------------3--------------------------------------------------------|


 Dm                 E                 Am                 


E|----------1-------------------0-------------------0-------|

H|------3-------3-----------0-------0-----------1-------1---|

G|----2---2---2---2-------1---1---1---1-------2---2---2---2-|

D|-0-------------------2------------------------------------|

A|-----------------------------------------0----------------|

E|----------------------------------------------------------|



                            Dm G                           Cmaj7   F
Мой дорогой цветок, живёшь с собой вдвоём,
                         Dm  E                  Am       
И веришь, что любить  пока ещё не поздно
                           Dm G                          Cmaj7   F
Тебе всегда тепло    под питерским дождём,
                 Dm  E                              Am     
А я под золотым,  московским солнцем мёрзну

Припев:

          Dm             E       Am  
Не сойдутся Москва с Невой,
              Dm            G Cmaj7 
Нежной девочкой Севера
     Dm              E       F   
У моей Москвы нет такой,
              Dm         E     Am 
Светлой нежности и тепла

      Dm          E     Am 
А когда развели мосты,
                     Dm      G     Gm    A7 
Осень струны оборвала
      Dm           E       F     
И у диких, твоих коней -
          Dm       E      Am 
Гривы воронова крыла


И в час, когда шепчу во имя всех святых,
В награду нам дано такое наказание
И я схожу с ума от нежных губ твоих,
От женской красоты горячего дыхания

Припев.

Проигрыш: Dm  G  Cmaj7  F  Dm  E  Am   


Мой дорогой цветок, живёшь с собой вдвоём,   
И веришь, что любить пока ещё не поздно
И мне всегда тепло под питерским дождём,
А ты под золотым, московским солнцем мёрзнешь

Припев.

          Dm       E      Am  
  Гривы воронова крыла...

Окончание: Dm  G  Cmaj7  F  Dm  E  Am

Примерный вариант боя:

 


 
Последние комментарии

"СПАСИБО!!!"
 

"Красивая и правдивая песня! На все времена! Всех вспомнили,никого не забыли! Спасибо!"
 

"давно искал! спасибо!"
 

"Отличный подбор! Это тебе не на амдм хлам. Спасибо!"
 

"нашла Ура!!!"
Статистика

Онлайн всего: 94
Гостей: 92
Пользователей: 2
Алексей, Justas
Вход на сайт