Accordium Delectus Подборка аккордов
 

Татьяна Снежина: Снежинка


В оригинале на полтора тона выше (Gm).

Можно проиграть этими же аккордами, поставив каподастр на 3-ем ладу


   Em       Em/G Am                Am/C 
Первый снег, первый след зимы,
   H7                          Em Em/G
Первый шаг от лета к холоду
  Am     Am/C     Em               Em/G
Первый лист,   белый лист зимы,
  H7                         Em Em/G
Как пролог рассказа долгого

Припев:

           Am   Am/C    Em    Em/G
Снежинка за снежинкой
        H7             Em   Em/G
Спускаются в ладонь мою
         Am   Am/C  Em    Em/G 
Ошибка за  ошибкой
         H7               Em Em/G
Прощаются мне вью-гою


Первый снег, как любовь твоя -
Может быть растает, может нет
Первый цвет ледяного дня
Между нами лёг первый снег

Припев.

Первый снег, как моя душа,
Смелые твои хранит следы
Может быть, не стоят и гроша
Я и первый снег твоей судьбы

Припев.

Проигрыш: Am  Am/C  Em  Em/G  H7  H7  Em  Em/G

Первый снег, первый след зимы,
Первый шаг от лета к холоду
Первый лист, белый лист зимы,
Как пролог рассказа долгого

Припев.

Примерный вариант перебора (куплет):


  Em                 Em/G                 Am                 Am/C                 

E|----------0-------------------0-------------------0-------------------0-------|

H|------0-------0-----------0-------0-----------1-------1-----------1-------1---|

G|----0---0---0---0-------0---0---0---0-------2---2---2---2-------2---2---2---2-|

D|------------------------------------------------------------------------------|

A|-----------------------------------------0-------------------3----------------|

E|-0-------------------3--------------------------------------------------------|

 

  H7                  H7                  Em                 Em/G                 

E|----------2-------------------2-------------------0-------------------0-------|

H|------0-------0-----------0-------0-----------0-------0-----------0-------0---|

G|----2---2---2---2-------2---2---2---2-------0---0---0---0-------0---0---0---0-|

D|---------------------1--------------------------------------------------------|

A|-2----------------------------------------------------------------------------|

E|-----------------------------------------0-------------------3----------------|

 

  Am                 Am/C                Em                  Em/G               

E|----------0-------------------0-------------------0-------------------0-------|

H|------1-------1-----------1-------1-----------0-------0-----------0-------0---|

G|----2---2---2---2-------2---2---2---2-------0---0---0---0-------0---0---0---0-|

D|------------------------------------------------------------------------------|

A|-0-------------------3--------------------------------------------------------|

E|-----------------------------------------0-------------------3----------------|

 

  H7                  H7                  Em                 Em/G                 

E|----------2-------------------2-------------------0-------------------0-------|

H|------0-------0-----------0-------0-----------0-------0-----------0-------0---|

G|----2---2---2---2-------2---2---2---2-------0---0---0---0-------0---0---0---0-|

D|---------------------1--------------------------------------------------------|

A|-2----------------------------------------------------------------------------|

E|-----------------------------------------0-------------------3----------------|

 
Последние комментарии

"Мощь! Такая переданная энергия способствует и мне взять и что нибудь "выдать"! Инструкцию Мехвод, Карусели, Если ты герой -слыхали? ... На бёдрах две наколки, На шее медный крест..."
 

"Спасибо за песню"
 

"Отличная песня и исполнение !!!!!!"
 

"Последний куплет неудачный. Смотрите сами: Только павший лист, играя, Без печали гонят ветры. А любовь, как розы в мае, Не бывает без ответа Мне попадался вариант получше: Если сердце замирает, Значит песня – не допета, А любовь, как грозы в мае, - Вот она была - и нету. припев Осень чувства остужает, Оставляя без ответа. Без любви любовь бывает, Только все неправда это! припев"
 

"Вулканы и море там B аккорд совсем не звучит, скорее Dm"
Вход на сайт