Accordium Delectus Подборка аккордов
 
Главная > Дуэты > Анисимов, Грищук: Наша с тобой любовь

Вячеслав Анисимов и Сергей Грищук: Наша с тобой любовь



Вступление (примерный вариант перебора):

  Am                               F                                
E|---------0---------------0---------------1---------------1-------|
H|-----1-------1-------1-------1-------1-------1-------1-------1---|
G|---2---2---2---2---2---2---2---2---2---2---2---2---2---2---2---2-|
D|-----------------------------------------------------------------|
A|-0---------------0-----------------------------------------------|
E|---------------------------------1---------------1---------------|
   G                               E               E7               
E|---------3---------------3---------------0---------------0-------|
H|-----0-------0-------0-------0-------0-------0-------0-------0---|
G|---0---0---0---0---0---0---0---0---1---1---1---1---1---1---1---1-|
D|---------------------------------2---------------0---------------|
A|-----------------------------------------------------------------|
E|-3---------------3-----------------------------------------------|


  Am                                               Dm
Сможешь меня понять, может быть, ты,
 G                                                C
Только простить и всё - ради любви
Am                                          Dm   
Пусть пролетит, как сон, эта печаль,
  E       E7    Am  
Дымкой растает

Припев:

Am                                   Dm  
Буду тебя любить, ты это знай!
  G                                           C    
Нашу любовь хранить не забывай!
Am                                         Dm
Даже пройдут года, помни всегда:
  E            E7 Am      
Ты со мной    рядом!


Am                                                 Dm             
Нашу с тобой любовь, может, не встречу вновь,
  G                                             C            E 
Пусть пролетят года, помнить я буду всегда!
Am                                       Dm            
Первую ту весну встречу с тобой в саду,
  G                                             C             E  
Пусть пролетят года, помнить я буду всегда!

Проигрыш:

|Am  Am|Dm  Dm|G  G|C  C|

|Am  Am|Dm  Dm|E  E7|Am  Am|

Припев.

Бой на гитаре (примерный вариант):

 


 
Последние комментарии

"Благодарю за песню!Мелодичная и красивая,спели великолепно! Цепляет струнки души!"
 

"А я слышал вариант: От вселенской ПОГОНИ не уйти ..."
 

"Классно, а кто текст написал?)"
 

"Нормально. Мы ее в армии лабали ДМБ-82"
 

"Класс!"
Статистика

Онлайн всего: 91
Гостей: 91
Пользователей: 0
Вход на сайт