Accordium Delectus Подборка аккордов
 
Главная > Дуэты > Абдулов, Высоцкий: Нет друга, но смогу ли...

Всеволод Абдулов и Владимир Высоцкий: Нет друга, но смогу ли...



Вступление:

         Am6            E7     F7       Am/C Am     
E|-7--10---8-7--10--7----7--8----7-5--8---5----|
H|----10--------10--9-------10--------10--5----|
G|----10--------10--7-------8---------9---5----|
D|----9---------9---9-------10--------10--7----|
A|------------------7-------8-------------7----|
E|----------------------------------------5----|
         Am6       E7         Am                    
E|-8--10---8-7--7---5--4------0----0----0----0-|
H|----10--------9-------------1----1----1----1-|
G|----10--------7-------------2----2----2----2-|
D|----9---------9------------------------------|
A|--------------7----------0---------0---------|
E|------------------------------0---------0----|

        Am            Dm E7                            Am 
Нет друга, но смогу     ли не вспоминать его -
      Am              Dm  G7                     C
Он спас меня от пули    и много от чего
A7                               Dm           E7                F         
Ведь если станет плохо с душой иль головой,
  Dm                   Am      H7     E7      Am 
То он в мгновение ока окажется со мной

Am                                          
И где бы он ни был, куда б ни уехал,
         G7                                          C 
Как прежде, в бою, и в огне, и в дыму,
    Dm                        Am              
Я знаю, что он мне желает успеха,
    H7                   E7    Am
Я тоже успеха желаю ему

Бой на гитаре (примерный вариант):

 


 
Последние комментарии

"Типичная песня тех лет. Как раз в стиле Синей Птицы!"
 

"Замечательный дуэт вокалистов! Левкин-Дроздов!"
 

"В тексте во время проигрыша: Я в руках твоих был кораблем без ВЕТРИЛ!"
 

"Отличная лирическая песня, красивая, но почему то незаслуженно забытая."
 

"Анатолий, спасибо Вам большое 🤗. Песня у меня на сотике. Спасибо"
Вход на сайт