Accordium Delectus Подборка аккордов
 
Главная > Ж > Журга > С Днём рождения, мама

Журга (Галина Журавлёва): С Днём рождения, мама


В оригинале на один тон выше (Hm).

Можно проиграть этими же аккордами, поставив каподастр на 2-ом ладу


Вступление (примерный вариант боя на гитаре):


 Am(5) Am+7  Am7  Am/F#  Am               Dm                  

E|---5-5---5-5---5-5---5-5---0-0---0-0---1-1---1-1-|

H|---5-5---5-5---5-5---5-5---1-1---1-1---3-3---3-3-|

G|---5-5---5-5---5-5---5-5---2-2---2-2---2-2---2-2-|

D|-7-----6-----5-----4-----------------0-----------|

A|-------------------------0-----------------0-----|

E|-------------------------------0-----------------|


   Dm               Am                E                                       

E|---1-1---1-1---0-0---0-0---0-0---0-0---0-0-------|

H|---3-3---3-3---1-1---1-1---0-0---0-0---0-0-------|

G|---2-2---2-2---2-2---2-2---1-1---1-1---1-1-------|

D|-0-----------------------------------------------|

A|-------0-----0-----------------2-----------2-----|

E|-------------------0-----0-----------0-----------|


       Am               E        Am      
За окном дождик тихо заплакал,
       E                      Am 
А у нас красота за столом
              F                    Dm    
День рождения сегодня у мамы,
         E                          Am
И родных, и друзей полон дом

      Gm          A7       Dm         
И бокалы на скатерти тонкой -
             Gm      A7          Dm  
Нет счастливее маминых глаз!
            Dm/H         E            Am         F
Кто-то крикнул родителям: "Горько!",
        Dm               E          Am   
А раз так, значит жизнь удалась!

Припев:

    Am                 Dm    
С Днём рождения, мама,
  E                Am    
Обними меня
 F                Dm  
Держит и спасает
   E                      Am  E  
Нас любовь твоя

    Am                  Dm     
С Днём рождения, мама,
        G                    Gm  A7
Пусть берегут тебя
Dm         Dm/H  Am          
И земля, и  небо,
  E                 Am    
И любовь моя
И земля, и небо,
И любовь моя


Всё напутал рассеянный дождик,
Может, вышел гостей проводить
Мы за маму нальём на дорожку,
Всем в здоровье и в радости жить

На ковре засыпают игрушки,
И внучата давно видят сны
Кукла Маша лежит на подушке...
Мама, мамочка, сядь, отдохни!

Припев.

Проигрыш=Вступление

Видно, вдоволь наплакались свечи,
Заглянув в наш семейный альбом
Оживают разлуки и встречи,
Мама мамочка, слёзы - потом

Пожелтели от времени фото...
Ах, какая же жизнь пронеслась!
Свадьба, дети, друзья и работа -
Это счастье уже не украсть

Припев.

Dm                 Am         
И земля, и небо,
  E                  Am     
И любовь моя

Окончание:

Am(5) Am+7   Am7  Am/F#  Am       E      Am       Am(5)

E|---5-5---5-5---5-5---5-5---0-0---0-0---0-0---5-|

H|---5-5---5-5---5-5---5-5---1-1---0-0---1-1---5-|

G|---5-5---5-5---5-5---5-5---2-2---1-1---2-2---5-|

D|-7-----6-----5-----4-------------------------5-|

A|-------------------------0-----------0-------0-|

E|-------------------------------0---------------|

 
Последние комментарии

"Во!"
 

"Посмотрела этот мульт с ребёнком, так понравилась песня - начала её искать специально ☺... Жаль что сейчас такие не пишут"
 

""Ласковый май" вернулся"
 

"Безумно красивая композиция"
 

"Текст не соответствует заявленному! Примите меры."
Вход на сайт