Accordium Delectus Подборка аккордов
 
Главная > З > Зодчие > О чём ты хотел со мной помолчать

Зодчие: О чём ты хотел со мной помолчать



Вступление (примерный вариант перебора):

   D6
E|---------2-----------2-----------2-----------2-|
H|------0-----------0-----------0-----------0----|
G|----2-----------2-----------2-----------2------|
D|-0-----------0-----------0-----------0---------|
A|-----------------------------------------------|
E|-----------------------------------------------|

G6/D
E|---------0-----------0-----------0-----------0-|
H|------0-----------0-----------0-----------0----|
G|----0-----------0-----------0-----------0------|
D|-0-----------0-----------0-----------0---------|
A|-----------------------------------------------|
E|-----------------------------------------------|

D6                                         
О чём ты хотел со мной помолчать?
G6/D                                              
Что тебе взять, чтоб слов не искать?
Em              A7 Em                   A7            D6 
Нам ли не знать - вслух друг друга не понять

    F#m                    F#m+7        
Как искры из глаз сжигали мосты,
     F#m7                H/D#        
Как верили в нас, и верили мы:
       Em                   A7                            D6   D7
Совесть взаймы - и святые не страшны!

Припев:

      Em                   A7        Em                     A7   
Как надо, не надо жить - наверно не нам судить,
       D6                             Hm7                   
Кто добрый, кто злой, кто трус, кто герой...
    Em           A7                                D6 
Бокал пустой, помолчим вдвоём с тобой


Сердце насквозь проткнув невзначай,
Радость до слёз, боль через край,
Каждый из нас выбирал дорогу в рай

Карты на стол, игра не в зачёт,
Зашёл в протокол финальный отчёт,
Всевышний прочтёт - и возьмёт самоотвод

Припев.

Проигрыш:

|D6  D6|D6  D6|G6/D  G6/D|G6/D  G6/D|

|Em  A7|Em  A7|D6  D6|D6  D6|

|F#m  F#m|F#m+7  F#m+7 |F#m7  F#m7|H/D#  H/D#|

|Em  Em|A7  A7|D6  D6|D7  D7|

Припев.

                 D6                                                 Em  A7
О чём ты хотел со мной помолчать?
                 D6                                                 Em  A7
О чём ты хотел со мной помолчать?
                       D6                                                 Em  A7  D6
О чём ты хотел со мной помолчать?
 
Последние комментарии

"Сергей Дроздов - легендарный вокалист "Синей птицы" , а это что за круглый однофамилец и тезка???"
 

"Абсолютно!"
 

"Прекрасно!"
 

"50 лет эту песню слушаю и пою, 50 лет восхищаюсь"
 

"🔥Привет всё хорошо мне всё понравилось,нравится я в восторге и радуюсь наслаждаясь такой прекрасной правильной умной даже нравственной песне. Спасибо! Антон из Челябинска пока 🖐"
Вход на сайт