Accordium Delectus Подборка аккордов Главная Отзывы Заявка на песню Аккорды Табы Новости Видео Статьи FAQ О сайте
А   Б   В   Г   Д   Е   Ё   Ж   З   И   Й   К   Л   М   Н   О   П   Р   С   Т   У   Ф   Х   Ц   Ч   Ш   Щ   Э   Ю   Я
 
A   B   C   D   E   F   G   H   I   J   K   L   M   N   O   P   Q   R   S   T   U   V   W   Y   Z                       0...9
Разделы сайта
                   
Настройка гитары
1-я струна E  

2-я струна H  

3-я струна G  

4-я струна D  

5-я струна A  

6-я струна E  

Главная > М > Митяев Олег > Соседка

Олег Митяев - Соседка Текст песни с аккордами

По заказу Николая Ленкова


Вступление:


   Dm            Gm    A7    Dm B   A       Dm            Gm    A7    Dm   

E|-----------------------------------------------------------------------|

H|-----------------------------------------------------------------------|

G|-----------0-2-3---------2-0-------------------------0-2-3-------------|

D|-0---0-2-3---------0-----------3--2-3-2----0---0-2-3---------0-----2-0-|

A|---------------------4-----------------------------------------4-------|

E|-----------------------------------------------------------------------|

 

  Dm                                   
Снова гость к моей соседке,
Gm                                          
Дочка спит, торшер горит,
 A7                     Dm  B A 
Радость на лице...

Dm                                           
По стеклу скребутся ветки,
Gm                                          
В рюмочки коньяк налит —
A7                  Dm   D 
Со свиданьицем!

Gm         A7              
Вроде бы откуда
Dm      B                
Новая посуда?
 Gm        A7            Dm               A7      
Но соседка этим гостем дорожит:

Gm         A7                     
То поправит скатерть,
Dm             B                    
То вздохнёт некстати,
Gm           E                A7            Dm   
   То смутится, что не острые ножи...



Он — мужчина разведённый,
И она разведена,
Что тут говорить...

Правит нами век казённый,
И не их это вина —
Некого винить...


Тот был, первый — гордым,
Правильным был, твёрдым —
Ну да бог ему судья, да был бы жив

Сквер листву меняет,
Дочка подрастает...
Gm        A7                               Dm   
И пустяк, что не наточены ножи



Пахнет наволочка снегом,
Где-то капает вода,
Плащ в углу висит

На проспект спустились небо,
И зелёная звезда
Позднего такси...


Далеко до Сходни,
Не уйти сегодня —
Он бы мог совсем остаться, да и жить...

Всё не так досадно,
Может, жили б складно...
Gm             A7                              Dm   H7 
Ах, дались мне эти чёртовы ножи!

Переход на 1 тон (на 2 лада) выше (Em)

     Em                                             
Ах, как спится утром зимним!
Am                                         
На ветру фонарь скулит —
H7                 Em  C H 
Жёлтая дыра...

Em                                          
Фонарю приснились ливни,
Am                                      
Вот теперь он и не спит,
H7                               Em   E 
Всё скрипит: пора, пора...


Am            H7                    
Свет сольётся в щёлку,
Em            C                       
Дверь тихонько щёлкнет,
Am             H7              Em         H7      
Лифт послушно отсчитает этажи...

Am             H7                   
Снег под утро ляжет,
Em           C                
И не плохо даже
F                H7                         Em   
То, что в доме не наточены ножи

Снег под утро ляжет,
И не плохо даже
То, что в доме не наточены ножи...

Окончание...


       Em            Am    H7    Em C   H       Em            Am    H7    Em  C H   

E|-----------------------------------------------------------------------|

H|-----------------------------------------------------------------------|

G|-----------2-4-5---------4-2-------------------------2-4-5-------------|

D|-2---2-4-5---------2-1---------5--4-5-4----2---2-4-5---------2-1---4-2-|

A|-----------------------------------------------------------------------|

E|-----------------------------------------------------------------------|

Бой на гитаре (примерные варианты):

 
Новые добавления
Статистика

Онлайн всего: 34
Гостей: 34
Пользователей: 0

Яндекс.Метрика

Вход на сайт