Accordium Delectus Подборка аккордов
 
Главная > В > Весенин Андрей > Просто февраль

Андрей Весенин: Просто февраль



В оригинале на полтона ниже (G#m)


Вступление:

A7  Dm  G  C  Am   Dm/H  E  Am  A7       A7  Dm  G  C  F   Dm/H  E  Am  Am

   A7       Dm      G                   C       Am   
E|-------15-13---13-13-12------------13-12----------|
H|------------------------15-----------------15-13--|
G|-14-14-----------------------12-12----------------|
D|--------------------------------------------------|
A|--------------------------------------------------|
E|--------------------------------------------------|

           Dm/H     E                   Am      A7   
E|-------12---------12--------------------------12--|
H|----------15---13----15-15---15-15-12-13---15-----|
G|-14-14--------------------------------------------|
D|--------------------------------------------------|
A|--------------------------------------------------|
E|--------------------------------------------------|

   A7       Dm      G                   C       F   
E|-------15-13---13-13-12------------13-12----------|
H|------------------------15-----------------15-13--|
G|-14-14-----------------------12-12----------------|
D|--------------------------------------------------|
A|--------------------------------------------------|
E|--------------------------------------------------|

              Dm/H     E                   Am              
E|-------12-10------12-10-10----10-10---------------|
H|--------------13--------------------12-13--12--10-|
G|-10-10--------------------------------------------|
D|--------------------------------------------------|
A|--------------------------------------------------|
E|--------------------------------------------------|

               Dm/H            E  
Просто февраль, холодно,
            Am         
Воет в ночи метель
         Dm      G        
Напополам разорваны
                 C       A7   
Сердце, дыханье, день

Припев:

               Dm         G
Как же к тебе хочется,
              C      F  
Да занесло пути!
        Dm/H  E         
Вот оно, одиночество,
                Am             A7
Вот он, февраль... Прости!

Как же к тебе хочется,
Да занесло пути!
Вот оно, одиночество,
                Am                
Вот он, февраль... Прости!

Проигрыш:

   A7       Dm      G                   C       F   
E|-------15-13---13-13-12------------13-12----------|
H|------------------------15-----------------15-13--|
G|-14-14-----------------------12-12----------------|
D|--------------------------------------------------|
A|--------------------------------------------------|
E|--------------------------------------------------|

              Dm/H     E                   Am              
E|-------12-10------12-10-10----10-10---------------|
H|--------------13--------------------12-13--12--10-|
G|-10-10--------------------------------------------|
D|--------------------------------------------------|
A|--------------------------------------------------|
E|--------------------------------------------------|

Греюсь теплом нежности
Наших с тобою встреч,
Чтоб для твоей верности
Искру любви сберечь

Припев.

Проигрыш:

   A7       Dm      G                   C       F   
E|-------15-13---13-13-12------------13-12----------|
H|------------------------15-----------------15-13--|
G|-14-14-----------------------12-12----------------|
D|--------------------------------------------------|
A|--------------------------------------------------|
E|--------------------------------------------------|

              Dm/H     E                   Am              
E|-------12-10------12-10-10----10-10---------------|
H|--------------13--------------------12-13--12--10-|
G|-10-10--------------------------------------------|
D|--------------------------------------------------|
A|--------------------------------------------------|
E|--------------------------------------------------|

Просто февраль, холодно,
Воет в ночи метель
Напополам разорваны
Сердце, дыханье, день

Припев:

Как же к тебе хочется,
Да занесло пути!
Вот оно, одиночество,
Вот он, февраль... Прости!

Время течёт медленно,
На руку злой судьбе
Просто февраль, ветрено,
             Am        F   
Просто хочу к тебе...
Просто февраль, ветрено,
             Am            
Просто хочу к тебе...

Примерный вариант боя:

 


 
Последние комментарии

"Круть"
 

"А я все смерть"
 

"Владимир Руль, а не Виктор... Исправьте, пожалуйста.."
 

"С аккордами согласен. Благодарю"
 

"Задела песня, благодарность автору..."
Вход на сайт