Accordium Delectus Подборка аккордов
 
Главная > Е > Ефимыч > Мы теперь уходим понемногу

Ефимыч: Мы теперь уходим понемногу



В оригинале на 1 тон выше (Hm).

Можно проиграть этими же аккордами, поставив каподастр на 2-ом ладу

Вступление:

              Am           Dm            E                  Am       
E|----------------------------------------------------------|
H|-5--3---------5--3----3----6--5--3-3----------------------|
G|-------5-5----------5------------------5--4----5--4--2-2--|
D|----------------------------------------------------------|
A|----------------------------------------------------------|
E|----------------------------------------------------------|
             Am           Dm             E                  Am     
E|-8--7--5-5----8--7--5-7----10--8--7-7---5--4----8--7--5-5-|
H|----------------------------------------------------------|
G|-9--7--7-7----9--7--5-7----10--9--7-7---5--4----9--7--5-5-|
D|----------------------------------------------------------|
A|----------------------------------------------------------|
E|----------------------------------------------------------|

Am             Dm                     
Мы теперь уходим понемногу
  E                          Am                            
В ту страну, где тишь и благодать
Am                        Dm                            
Может быть, и скоро мне в дорогу
  E                    Am             E         
Бренные пожитки собирать

Милые берёзовые чащи,
Ты, земля, и вы, равнин пески,
Перед этим сонмом уходящим
  E                         Am                          
Я не в силах скрыть своей тоски

------------------------------------------------------------------------

   C                  G                       
Слишком я любил на этом свете
  E                      Am                             
Всё, что душу облекает в плоть
Am                      Dm                                
Мир осинам, что, раскинув ветви,
 E                       Am                    
Загляделись в розовую водь

Много дум я в тишине продумал,
Много песен про себя сложил
И на этой на земле угрюмой
Счастлив тем, что я дышал и жил

Счастлив тем, что целовал я женщин,
Мял цветы, валялся на траве,
И зверьё, как братьев наших меньших,
Никогда не бил по голове

Знаю я, что не цветут там чащи,
Не звенит лебяжьей шеей рожь
Оттого пред сонмом уходящим
Я всегда испытываю дрожь

Знаю я, что в той стране не будет
Этих нив, златящихся во мгле
Оттого и дороги мне люди,
Что живут со мною на земле

Окончание=Вступление
   
Последние комментарии

"Правильные аккорды. Я так же подобрал - только в ля миноре. А здесь не в ля, а фа миноре."
 

"Класс!!!!!!!!!!"
 

"Спасибо ОГРОМНОЕ! Удачи Вам!"
 

"ок"
 

"Отличная песня!!"
Настройка гитары
1-ая струна E (ми)  

2-ая струна H (си)  

3-я струна G (соль) 

4-ая струна D (ре) 

5-ая струна A (ля) 

6-ая струна E (ми) 
Статистика

Онлайн всего: 21
Гостей: 21
Пользователей: 0
Вход на сайт