Accordium Delectus Подборка аккордов
 

Главная > Р > Рождество > Так хочется жить

Рождество - Так хочется жить Текст песни с аккордами

По заказу Эмилии (Беларусь)


Вступление: Em  Am7  D  Em

      Em                        Am7 
Ты знаешь, так хочется жить,
             D                          Em     
Наслаждаться восходом багряным
 Em                           Am7
Жить, чтобы просто любить
    D                               Em    
Всех, кто живёт с тобой рядом

Ты знаешь, так хочется жить,
Просыпаться с тобой на рассвете
Взять - и кофе сварить,
Пока ещё спят все на свете

Проигрыш: Em  Am7  D  Em

Ты знаешь, так хочется жить,
Как не напишут в газете
Взять - и всё раздарить,
Жить, чтобы помнили дети

Ты знаешь, так хочется жить,
В миг, когда тебя задавило,
Встать и всем объявить:
"Я вернусь, даже если прибило"

Проигрыш: Em  Am7  D  Em - 2 раза

Ты знаешь, так хочется жить,
В ту минуту, что роковая,
Всё плохое забыть, всех простить,
Лишь прощение - спасение, я знаю

Ты знаешь, так хочется жить,
В зимнем саду спящей вишней,
Чтоб по весне расцвести
Деревом для новой жизни

Примерный вариант перебора:


    Em                                                                               Am7                                                                       

E|---------0-----0---------------0-----0--------------0-----0-------------0-----0---|

H|-------0---0-----0-----------0---0-----0----------1---1-----1---------1---1-----1-|

G|-----0-------0-------------0-------0------------0-------0-----------0-------0-----|

D|-2---------------------------------------------------------------2----------------|

A|------------------------2--------------------0------------------------------------|

E|----------------------------------------------------------------------------------|

      D                                                                             Em                                                                               

E|--------2-----2-------------2-----2--------------0-----0------------0-----0-------|

H|------3---3-----3---------3---3-----3----------0---0-----0--------0---0-----0-----|

G|----2-------2-----------2-------2------------0-------0----------0-------0---------|

D|-0----------------------------------------2--------------------------------------|

A|---------------------0---------------------------------------2--------------------|

E|----------------------------------------------------------------------------------|


Примерный вариант боя:


 


 
Последние комментарии

"Здорово. По-моему. лучшее исполнение"
 

"Клаааас!"
 

"Низкий поклон АНГЕЛАМ ПРИСЯГИ!!!"
 

"Классная песня , с великим смыслом СПАСИБО""
 

"класс"
Статистика

Онлайн всего: 114
Гостей: 113
Пользователей: 1
Justas
Вход на сайт