Accordium Delectus Подборка аккордов
 
Главная > С > Стрижак Варя > Школота on-line

Варя Стрижак: Школота on-line


В оригинале на пол-тона выше (Bm).

Можно проиграть этими же аккордами, поставив каподастр на 1-ом ладу


Вступление - 3 раза: 

Am

E|----------------------------------------------------------------------|

H|-5-5-5-5-4-5------5-5-5-5-4-5-------5-5-5-5-4-5-----------------------|

G|------------------------------------------------------5---5-----------|

D|-------------7----------------7-----------------7-------7---7---5-7-7-|

A|----------------------------------------------------------------------|

E|----------------------------------------------------------------------|



Am                    
Школота уже в сети,
Выпей яду и свинти
Мозги вяжем мы узлом,
Кто не с нами - под столом

Полный ахтунг учинять,
Троллить, спамить, отжигать
По пятьсот комментов в день -
Нам ещё писать не лень

Am               C                
Не по-детски автор жжёт,
      G                   Am           
Значит - ставим незачёт
Am                    C       
Мы в он-лайне - короли,
      G                  Am           
Не втыкаешь - погугли

Припев:

Am                           
Называй нас школота,
Школо-лоло-лолота
В топку взрослые понты -
Время вечной школоты

Знаем, что тебе не нра
Школо-лоло-лолота
Вирус твоего винта
Запускает школота


Если мы в он-лайне есть -
Однозначно будет жесть
Всех отправим мы в отстой,
Креатив об стену твой

Эй, красавчик, мы не спим,
Если надо - зафлудим
С нами будет нелегко,
Уберись в оффлайн, имхо!

Если встанешь на пути,
Аватар и ник смени
Мы уже тебя нашли,
Не втыкаешь - погугли

Припев.

Проигрыш - 2 раза: 

Bm

E|----------------------------------------------------------------------|

H|-5-5-5-5-4-5------5-5-5-5-4-5-------5-5-5-5-4-5-----------------------|

G|------------------------------------------------------5---5-----------|

D|-------------7----------------7-----------------7-------7---7---5-7-7-|

A|----------------------------------------------------------------------|

E|----------------------------------------------------------------------|



Припев.
 
Последние комментарии

"Супер, вспомнил забытую вещь"
 

"ШИКАРНАЯ ПЕСНЯ!!!!"
 

"Шикарный голос! Слова песни, музыка завораживают! До слез."
 

"Ещё б ноты к этой песне."
 

"Класс!!!!!!"
Вход на сайт